Oops, an error
Loading. Please wait.

Shes So Mean Bass

version 1
version 1

Whole song

4,520 views 3 this week
no commentswrite comment
1 2 3 4 5
x 3
add to favorites
launch autoscroll
font size
0
reset
guitar tuner
×
Best way to learn
"Shes So Mean"
Autoscroll
slow
fast
+/-
esc
set tempo
stop
Verse (0:24)                                           (x2)
G:-----------------------------------------------------:
D:-----------------------------------------------------:
A:-8-7--3--3--3--10-10-10-8---8-7--3--3--3--10-10-10-8-:
E:--------3--3-----------------------3--3--------------:

Pre Chorus (0:40)                      (x4)
G:---:---------------------------------:
D:---:---------------------------------:
A:-8/:-3-3-3-3-3-3-3-3-----------------:
E:---:-----------------3-3-3-1-1-1-1-1-:

Chorus (0:58)                      (x4)
G:---------------------------------:
D:-----------------5-5-5-3-3-3-3-3-:
A:-3-3-3-3-3-3-3-3-----------------:
E:---------------------------------:

Verse (1:14)                                      (x2)
G:------------------------------------------------:
D:------------------------------------------------:
A:-3--3--3--10-10-10-8---8-7--3--3--3--10-10-10-8-:
E:---3--3-----------------------3--3--------------:
                                                       (x2)
G:-----------------------------------------------------:
D:-----------------------------------------------------:
A:-8-7--3--3--3--10-10-10-8---8-7--3--3--3--10-10-10-8-:
E:--------3--3-----------------------3--3--------------:

Pre Chorus (1:46)                      (x4)
G:---:---------------------------------:
D:---:---------------------------------:
A:-8/:-3-3-3-3-3-3-3-3-----------------:
E:---:-----------------3-3-3-1-1-1-1-1-:

Chorus (2:02)                      (x4)
G:---------------------------------:
D:-----------------5-5-5-3-3-3-3-3-:
A:-3-3-3-3-3-3-3-3-----------------:
E:---------------------------------:

Bridge (2:18)
G:-----------------------------------------------------------------:
D:-----------------------------------------------------------------:
A:---------------------------------3-3-3-3-3-3-3-3-3-3-3-3-3-3-3-3-:
E:-5-5-5-5-5-5-5-5-5-5-5-5-5-5-5-5---------------------------------:

G:-----------------------------------------------------------------:
D:-----------------------------------------------------------------:
A:---------------------------------3-3-3-3-3-3-3-3-3-3-3-3-3-3-3-3-:
E:-5-5-5-5-5-5-5-5-5-5-5-5-5-5-5-5------------------------------3--:

"Softer Bit" (2:52)               (x4)
G:--------------------------------:
D:--------------------------------:(tap the 3A and slide to other notes)
A:-(3)-------------(10)---(8)-----:          -sustain all notes
E:--------------------------------:

Chorus (3:08)                      (x8)
G:---------------------------------:
D:-----------------5-5-5-3-3-3-3-3-:
A:-3-3-3-3-3-3-3-3-----------------:
E:---------------------------------:

Outro (3:40)
G:--------------------------------------------:--------:
D:--------------------------------------------:--------:
A:-3--3--3--10-10-10-8----3--3--3--10-10-10-8-:-3-3--3-:
E:---3--3-------------------3--3--------------:-----3--:
Suggest correction
Give kudos to tab author, rate the tab!
1 2 3 4 5
comments
print report bad tab
guest
You may want to rate the tab now too:
select rating
Wanna post a correction for this tab? Suggest correction