Oops, an error
Loading. Please wait.

She's So Mean Bass Tab

788 views 3 this week
2 commentsread comments
1 2 3 4 5
please rate
add to favorites
launch autoscroll
font size
0
reset
guitar tuner
Autoscroll
slow
fast
+/-
esc
set tempo
stop
Help us to improve Ultimate-Guitar.com Take our survey!
×
Author
Difficulty
-----------------------------------------------------------------------------
                     She's So Mean - Matchbox 20
-----------------------------------------------------------------------------

Tabbed by: Country Bass
E-mail: aaron.white8@ducation.nsw.gov.au

Tuning: Standard

Verse 1

Listen for when the bass comes in in verse 1

G|-------------------------|
D|-------------------------|
A|--3---3-3--3-10-10-10-8--| x4
E|-------------------------|

Pre-Chorus

G|----------------------------------|
D|----------------------------------|
A|-3-3-3-3-3-3-3-3------------------| x4
E|-----------------3-3-3-1-1-1-1-1--|

Chorus

If you would like to, The Chorus is playing the same chords as the verse
So you can play the verse riff if you wish

G|----------------------------------|
D|-----------------5-5-5-3-3-3-3-3--|
A|-3-3-3-3-3-3-3-3------------------| x4
E|----------------------------------|

Verse 2

G|-------------------------|
D|-------------------------|
A|--3---3-3--3-10-10-10-8--| x8
E|-------------------------|

Bridge

G|----------------------------------------------------------------------|
D|----------------------------------------------------------------------|
A|-------------------------------------3-3-3-3-3-3-3-3-3-3-3-3-3-3-3-3--| x2
E|-5-5-5-5-5-5-5-5-5-5-5-5-5-5-5-5-5-5----------------------------------|

Rest until chorus

Outro

G|-------------------------|    
D|-------------------------|    
A|--3-3--3-----------------| x3 
E|-------------------------|    


Intro - just guitar
Verse 1
Pre-Chorus
Chorus
Verse 2
Pre-Chorus
Chorus
Bridge
Chorus x2 
Outro




| /  slide up
| \  slide down
| h  hammer-on
| p  pull-off
| ~  vibrato
| +  harmonic
| x  Mute note
=============================================================================
Suggest correction
Give kudos to tab author, rate the tab!
1 2 3 4 5
comments
print report bad tab
2 comments total.
0 reply
gdavidso 10 wrote on March 29 2014, 11:18 pm

Having Verse 1 and 2 all on the same string is a little bit ridiculous. Here's an improvement.
G|-------------------------|
D|-------------5-5-5-3-----|
A|--3---3-3--3-------------|
E|-------------------------|
A little less shifting is always convenient.

0 reply
Country Bass 2,969 wrote on July 12 2014, 02:08 am

Cheers gdavidso

guest
You may want to rate the tab now too:
select rating
Please do not post tabs as comments. Select "correction" instead!