Oops, an error
Loading. Please wait.

So Sad So Lonely Tab

1,054 views 3 this week
1 commentread comment
1 2 3 4 5
x 3
add to favorites
launch autoscroll
font size
0
reset
how to read this tab
guitar tuner
Autoscroll
slow
fast
+/-
esc
set tempo
stop
Help us to improve Ultimate-Guitar.com Take our survey!
×
Author
Matchbox Twenty - So sad, So Lonely

- 
  This is purely my interpretation of the song, i do not in any way claim that 
this is EXACTLY right.
- 
  The solo i play in this song is improvised and completely different to the solo, 
so I'll leave it out.

Intro:
e|--------------------------------------------------------------------------|
B|--------------------------------------------------------------------------|
G|-14-14-14--14-14-14-14-14-14-14-----------14-14-14--14-14-14-14-14-14-14--|
D|-14-14-14--14-14-14-14-14-14-14-----------14-14-14--14-14-14-14-14-14-14--|
A|-12-12-12--12-12-12-12-12-12-12-----------12-12-12--12-12-12-12-12-12-12--|
E|--------------------------------------------------------------------------|
  
e|--------------------------------------------------------------------------| 
B|--------------------------------------------------------------------------|
G|--------------------------------------------------------------------------|
D|-14-14-14--14-14-14-14-14-14-14-----------14-14-14--14-14-14-14-14-14-14--|
A|-14-14-14--14-14-14-14-14-14-14-----------14-14-14--14-14-14-14-14-14-14--|
E|-12-12-12--12-12-12-12-12-12-12-----------12-12-12--12-12-12-12-12-12-12--|

Verse 1:
   I found out
   On a late night drive
   In my winter coat
   With my blood-shot eyes
   My faith ain't been
   No friend to me
   And the way i sin
   Is hanging off of me

Pre-Chorus:
e|-1-------------------------1----------------------------------------------|
B|-3-------1-----------------3--------1-------------------------------------|
G|-2-------2-------1---------2--------2--------1----------------------------|
D|-0-------2-------2---------0--------2--------2----------------------------|
A|---------0-------2------------------0--------2----------------------------|
E|-----------------0---------------------------0----------------------------|

e|--------------------------------------------------------------------------|
B|--------------------------------------------------------------------------|
G|-1----1----1--------------------------------1----1----1----1--------------|
D|-2----2----2----14-14-13\12-----------------2----2----2----2--14-14-13\12-|
A|-2----2----2----12-12-11\10-----------------2----2----2----2--12-12-11\10-|
E|-0----0----0--------------------------------0----0----0----0--------------|

Chorus:
Am                       Em
   I don't want nobody
Em                       Am
   Nobody don't want me
Am                       Em
   I'm so sad so lonely
Em                        Am
   But i'm always landing on my feet

Verse 2:
   One more time
   With a sad, sad smile
   And your white bread friends
   In the circus life
   All the one-way rides
   The sweet beginners
   Passing on the left-hand side
   With a sideways smile

Pre-Chorus:
e|-1-------------------------1----------------------------------------------|
B|-3-------1-----------------3--------1-------------------------------------|
G|-2-------2-------1---------2--------2--------1----------------------------|
D|-0-------2-------2---------0--------2--------2----------------------------|
A|---------0-------2------------------0--------2----------------------------|
E|-----------------0---------------------------0----------------------------|

e|--------------------------------------------------------------------------|
B|--------------------------------------------------------------------------|
G|-1----1----1--------------------------------1----1----1----1--------------|
D|-2----2----2----14-14-13\12-----------------2----2----2----2--14-14-13\12-|
A|-2----2----2----12-12-11\10-----------------2----2----2----2--12-12-11\10-|
E|-0----0----0--------------------------------0----0----0----0--------------|

Chorus:
Am                       Em
   I don't want nobody
Em                       Am
   Nobody don't want me
Am                       Em
   I'm so sad so lonely
Em                        Am
   But i'm always landing on my feet

              ..........Solo..........

Breakdown:
e|-----------------------------------------------------------------|
B|-----------------------------------------------------------------|
G|-------2--5-2p0--------------------------------------2--5-2p0----|
D|-----2-----------------2--5-2p0--------2--5-2p0----2-------------|
A|-0-0-----------------2---------------2-----------0---------------|
E|-----------------0-0-------------0-0-----------------------------|

e|-----------------------------------------------------------------|
B|-----------------------------------------------------------------|
G|-------2--5-2p0--------------------------------------2--5-2p0----|
D|-----2-----------------2--5-2p0--------2--5-2p0----2-------------|
A|-0-0-----------------2---------------2-----------0---------------|
E|-----------------0-0-------------0-0-----------------------------|

e|-----------------------------------------------------------------|
B|-----------------------------------------------------------------|
G|-------2--5-2p0--------------------------------------2--5-2p0----|
D|-----2-----------------2--5-2p0--------2--5-2p0----2-------------|
A|-0-0-----------------2---------------2-----------0---------------|
E|-----------------0-0-------------0-0-----------------------------|

I HOPE YOU GET WHAT YOU DESERVE!!!!

Chorus:
Am                       Em
   I don't want nobody
Em                       Am
   Nobody don't want me
Am                       Em
   I'm so sad so lonely
Em                        Am
   But i'm always landing on my feet
Am                       Em
   I don't want nobody
Em                       Am
   Nobody don't want me
Am                       Em
   I'm so sad so lonely
Em                        Am
   But i'm always landing on my feet

Outro:
e|------------------------------------------------------------------|
B|------------------------------------------------------------------|
G|-14-14-14--14-14-14-14-14-14-14---14-14-14--14-14-14-14-14-14-14--|
D|-14-14-14--14-14-14-14-14-14-14---14-14-14--14-14-14-14-14-14-14--|
A|-12-12-12--12-12-12-12-12-12-12---12-12-12--12-12-12-12-12-12-12--|
E|------------------------------------------------------------------|

e|---------------------------------------|
B|---------------------------------------|
G|-14-14-14--14-14-14-14-14-14-14---14---|
D|-14-14-14--14-14-14-14-14-14-14---14---|
A|-12-12-12--12-12-12-12-12-12-12---12---|
E|---------------------------------------|


Tabbed By Nick Cropper Of Kedollasha
---Thank you---
Suggest correction
Give kudos to tab author, rate the tab!
1 2 3 4 5
comments
print report bad tab
1 comment total.
0 reply
ygmantell 90 Jul 04, 2014 02:26 PM

Lack of accuracy. Clearly wrong.

guest
You may want to rate the tab now too:
select rating
Wanna post a correction for this tab? Suggest correction