Oops, an error
Loading. Please wait.

Soul Tab

version 1
version 1

Intro

Whole song

2,282 views 1 this week
2 commentsread comments
1 2 3 4 5
worth learning
x 4
add to favorites
launch autoscroll
font size
0
reset
how to read this tab
guitar tuner
Tab Pro tools
  • play this tab
  • loop segment
  • change instrument
  • show fretboard
  • metronome
×
Best way to learn
"Soul"
Autoscroll
slow
fast
+/-
esc
set tempo
stop
Contributor
This is just the intro to Soul.

-0-----------------------------------|
---4--2--0--2------------------------|
---------------1------0p1---0p1------|
------------------2---------2--------|
-------------------------------------|
-------------------------------------|

-0-----------------------------------|
---4--2--0--2------------------------|
---------------1------0p1---0p1------|
------------------2---------2--------|
-------------------------------------|
-------------------------------------|

-0-----------------------------------|
---4--2--0--2------------------------|
---------------1------0p1---0p1------|
------------------2---------2--------|
-------------------------------------|
-------------------------------------|
comments
print report bad tab
2 comments total.
0 reply
phillmoore2003 wrote on August 7 2003, 12:00 am

sorry bout that guys, left out a bit (my first tab ever)

-0-----------------------|
---4--2--0--2--0---------|
-----------------1-------| 2 X
---------------------2---|
-------------------------|
then
-------------------------|
-------------------------|
-------------0p1---0p1---|
--------------------2----|
-------------------------|
-------------------------|

0 reply
TRH wrote on December 6 2006, 08:23 pm

it's not just single notes, it's in a chord formation

I want to post or [tab]
guest
You may want to rate the tab now too:
select rating
Please do not post tabs as comments. Select "correction" instead!