Oops, an error
Loading. Please wait.

Unwell Bass Tab

version 3
version 3

Whole song

Interactive

1,320 views 3 this week
no commentswrite comment
1 2 3 4 5
please rate
add to favorites
launch autoscroll
font size
0
reset
guitar tuner
Tab Pro tools
  • play this tab
  • loop segment
  • change instrument
  • show fretboard
  • metronome
Autoscroll
slow
fast
+/-
esc
set tempo
stop
Contributor

Intro
G|-----------------------------------------------------|
D|-----------------------------------------------------|
A|-----------------------------------------------------|
D|-7---57--0----4---24--2---02-7---57--0----4---24--2--|
Rest for awhile...

G|-----------------------------------------|
D|-------7-----------------------/7--------|
A|-5--7-----/9--5--7--9----5--7------/9--5-|
D|-----------------------------------------|

Verse 1
G|-------------------------------------------------------|
D|-------------------------------------------------------|
A|---------------------4--45---------4--45---------------|
D|-0-0---2-2--2-2--2\---------7--02---------7-7--2--0-2\-|

Chorus 1
G|-----------------------------------------------------|
D|-----------------------------------------------------|
A|-----------------------------------------------------|
D|-7---57--0----4---24--2---02-7---57--0----4---24--6--|

Verse 2 (the bass starts when “talking to...”)
G|-------------------------------------------------------------------------------------------|
D|-/7----------------------------------------------------------------------------------------|
A|-----/9--5--7--9----5--7--------5---------------------4--45---------4--45------------------|
D|--------------------------7--4-----0-0---2-2--2-2--2---------7--02---------7-7\--2--0h1h2\-|

Chorus 2
G|-------------------------------------------------------------|
D|-------------------------------------------------------------|
A|-------------------------------------------------------------|
D|-7---57--0----4---24--2--22-02-7---57--0----4---24--2--02--4-|

Bridge
G|---------------------------------------------------------------------------------|
D|---------------------------------------------------------------------------------|
A|---------------------------------------------------------------------------------|
D|-7----4-4-4-4-4-4-4-4-7----4-4-4-4-4-4-4-4-77-7--4-4-4-4-4-4-4-4-2-2-2-2-2-2-2-2-|

G|-----------------|
D|-----------------|
A|-----------------|
D|-2-2-2-2-2-2-2-2-|

Chorus 3 & Outro
G|------------------------------------------------------------------------|
D|------------------------------------------------------------------------|
A|-----------0------------------------------------------------------------|
D|-7---57--0---00---4-X4---2--02-X2-7--0767--0--00-0--4--04X4--2--4--6--9-|

G|--------------------------------------------------------------------------|
D|--------------------------------------------------------------------------|
A|--------------------------------------------------------------------------|
D|-7--0767--0--00-0--4--04X4--2--022--7--0767--0--00-0--4--04X4--2--4--6--9-|

G|--------------------------------------|
D|--------------------------------------|
A|--------------------------------------|
D|-7--076X--0--00-0--4---24--2--4--6--9-|
(fade out...)
comments
We did not receive enough feedback on this tab! Please rate:
print report bad tab
1 2 3 4 5
I want to post or [tab]
guest
You may want to rate the tab now too:
select rating
Please do not post tabs as comments. Select "correction" instead!