Oops, an error
Loading. Please wait.

Unwell Bass Tab

version 4
version 4

Whole song

Interactive

2,928 views 6 this week
no commentswrite comment
1 2 3 4 5
please rate
add to favorites
launch autoscroll
font size
0
reset
guitar tuner
Autoscroll
slow
fast
+/-
esc
set tempo
stop
Help us to improve Ultimate-Guitar.com Take our survey!
×
Author
Difficulty
MOxner 1,841
novice
[INTRO]  
  A        D        F#m      E        A        D        F#m      E
G:--------|--------|--------|--------|--------|--------|--------|--------|
D:-----0--|2-------|--------|--------|--------|0-------|--------|--------|
A:0-----0-|--------|--------|--------|0-----0-|--------|--------|--------|
E:--------|--------|2----02-|0-----0-|-----0--|--------|2----02-|0-------|
[VERSE]
  D      E   A              F#m                 D            E             F#m    
  All    day staring at the ceiling      Making friends with shadows on my wall
  D      E         A              F#m           D 
  All    night I'm hearing voices telling me    that I  should get some sleep
            E
  Because tomorrow might be good for something

  D   E    A   F#m  D   E    F#m      D   E    A   F#m  D        E
G:--------|--------|--------|--------|--------|2-------|--------|--------|
D:0---2---|----4---|0---2---|4-------|0---2---|----4---|0--00-0-|22-22-2-|
A:--------|0-------|--------|--------|--------|--------|--------|--------|
E:--------|--------|--------|--------|--------|--------|--------|--------|

[PRE-CHORUS]
  C#m    D        A                E             C#m     D         A            E
  Hold   on,  I'm feeling like I'm headed for a     breakdown  and I don't know why

  C#m D    A   E    C#m D    A   E    
G:--------|--------|--------|--------|
D:----0---|--------|----0---|----2-22|
A:4-------|0-------|4-------|00-0----|
E:--------|----0---|--------|--------|

[CHORUS]
        A                                 D    
  (But) I'm not crazy I'm just a little unwell       I know right now you can't tell
  F#m                                        Esus2
  But,   stay a while and maybe then you'll  see     A different side of me
  A                                 D    
  I'm not crazy I'm just a little impaired           I know right now you don't care
  F#m                                      Esus2                       D    
  But,   soon enough you're gonna think of me        and how I used to be
                    
  A        D        F#m      E        A        D        F#m      E        
G:--------|--------|--------|--------|--------|--------|--------|--------|
D:--------|0-------|4-----4-|2-----2-|--------|0-------|4-----4-|2-------|
A:0-----0-|--------|-----4--|-----2--|0-----0-|--------|-----4--|--------|
E:-----0--|--------|--------|--------|-----0--|--------|--------|--------|

[VERSE]
  D   E         A            F#m              D             E              F#m    
      Me... I'm talking to myself in public     and dodging glances on the train
  D     E       A                     F#m               D    
  I     know, I know they're all been talking 'bout me  I    can hear them whisper
         E
  and it makes me think there must be
  D   E    A   F#m  D   E    F#m      D   E    A   F#m  D        E
G:--------|2-------|--------|--------|--------|--------|--------|--------|
D:0---2---|----4---|0---2---|4-------|0---2---|----4---|0--00-0-|22-22-2-|
A:--------|--------|--------|--------|--------|0-------|--------|--------|
E:--------|--------|--------|--------|--------|--------|--------|--------|

[PRE-CHORUS]
            C#m        D         A              E
  Something wrong with me        Out of all the hours thinking
  C#m   D      A    A    A  E
    Somehow,   I've lost my mind.

  C#m  D   A   E    C#m  D   A   E    
G:--------|--------|--------|--------|
D:----0---|--------|----0---|--------|
A:4-------|0-------|4-------|0-------|
E:--------|----0---|--------|----0---|


[CHORUS]
        A                                 D    
  (But) I'm not crazy I'm just a little unwell       I know right now you can't tell
  F#m                                        Esus2
  But,   stay a while and maybe then you'll  see     A different side of me
  A                                 D    
  I'm not crazy I'm just a little impaired           I know right now you don't care
  F#m                                      Esus2                       D    
  But,   soon enough you're gonna think of me        and how I used to be

  A        D        F#m      E        A        D        F#m      E        
G:--------|--------|--------|--------|--------|--------|--------|--------|
D:--------|0-------|4--44-4-|2--22-2-|--------|0-------|4-----4-|2-------|
A:0-----0-|--------|--------|--------|0-----0-|--------|-----4--|--------|
E:-----0--|--------|--------|--------|-----0--|--------|--------|--------|

[BRIDGE]
  D          F#m                         D    
               I've   been talking in my sleep
  F#m                                      D    
    And    pretty soon they'll come to get me
  F#m                         Esus2    Esus2
    Yeah,  they're taking me away...


  D        F#m      D        F#m      D        F#m      E        E      
G:--------|--------|--------|--------|--------|--------|--------|--------|
D:0-------|44444444|0-------|44444444|0-------|44444444|22222222|22222222|
A:--------|--------|--------|--------|--------|--------|--------|--------|
E:--------|--------|--------|--------|--------|--------|--------|--------|

[CHORUS]
        A                                 D    
  (But) I'm not crazy I'm just a little unwell       I know right now you can't tell
  F#m                                        Esus2
  But,   stay a while and maybe then you'll  see     A different side of me
  A                                 D    
  I'm not crazy I'm just a little impaired           I know right now you don't care
  F#m                                      Esus2                       D    
  But,   soon enough you're gonna think of me        and how I used to be

  A        D        F#m      E        A        D        F#m      E        
G:--------|--------|--------|--------|--------|--------|--------|----1-4-|
D:--------|0--00---|4--44-4-|2--22-2-|--------|0--00---|4--44-4-|2-4-----|
A:0-----0-|--------|--------|--------|0-----0-|--------|--------|--------|
E:-----0--|--------|--------|--------|-----0--|--------|--------|--------|


[CODA]

  A        D        F#m      E        A        D        F#m      E        
G:--------|--------|--------|--------|--------|--------|--------|----1-4-|
D:--------|0--00---|4--44-4-|2--22-2-|--------|0--00---|4--44-4-|2-4-----|
A:0-----0-|--------|--------|--------|0-----0-|--------|--------|--------|
E:-----0--|--------|--------|--------|-----0--|--------|--------|--------|


  A        D        F#m      E        A        D        F#m      E        
G:--------|--------|--------|--------|--------|--------|--------|----1-4-|
D:--------|0--00---|4--44-4-|2--22-2-|--------|0--00---|4--44-4-|2-4-----|
A:0-----0-|--------|--------|--------|0-----0-|--------|--------|--------|
E:-----0--|--------|--------|--------|-----0--|--------|--------|--------|


Tabbed by Michael Oxner
moxner@nbnet.nb.ca

In the intro, there are D notes that would be better played on a Drop-D tuned bass 
to be more true to the original. Also, compared to other guitar tabs for this song 
on this site, the chords used here for guitar accompaniment are pretty simplistic. 
Enjoy!
Suggest correction new What's this?
You can suggest a correction to this tab. Community and Mods will review your correction and vote to approve or reject it.
comments
We did not receive enough feedback on this tab! Please rate:
print report bad tab
1 2 3 4 5
guest
You may want to rate the tab now too:
select rating
Please do not post tabs as comments. Select "correction" instead!