Oops, an error
Loading. Please wait.

Am Tilts bass

by Matches
555 views 1 this week
2 commentsread comments
1 2 3 4 5
1 last vote to show rating
add to favorites
×
Save as Personal and add changes to this tab that will be seen only by you. Learn more ›
×
You can save this tab as Personal to edit and correct it or add notes. All changes will be seen only by you. Learn more »
launch autoscroll
font size
0
reset
guitar tuner
edit
Autoscroll
slow
fast
+/-
esc
set tempo
stop
woo... 1:15 in the morning...
really effin tired...
but cannot fall asleep...
some things about this here tab!
If I were to tab this like I usually do, 
it would be really confusing... 
so instead- ima write the fret 
and next to it how many times you strum it
trust me it will be easier!

G|-----------------------------|
D|--14-14~----14-14~-----14-14~|
A|-------14~--------14~--------|4x
E|0~--------0~---------0~------|

G|-------------------------------|
D|-------------------------------|
A|19(32x)-16(16x)-15(16x)-14(32x)|
E|-------------------------------|

G|-----------------------------|
D|--14-14~----14-14~-----14-14~|
A|-------14~--------14~--------|
E|0~--------0~---------0~------|

G|-------------------------------------|
D|-------------------------13~---13~---|
A|15-15-15-15-15-15-15-14~----14~---14~|
E|-------------------------------------|

Pre-chorus No Bass

G|------------------------------|
D|------------------------------|
A|777-666----777-666------15~---|
E|--------77---------77-17---15~|
________________________^14x
G|---------------------------------------------------------------------------|
D|---------------------------------------------------------------------------|
A|777-666----777-666---------------------------------------------------------|
E|--------77---------77-9999999-888888888-7777777-666666666-5555555-777777777|

G|-----------------------------|
D|--14-14~----14-14~-----14-14~|
A|-------14~--------14~--------|2x
E|0~--------0~---------0~------|

G|-------------------------------|
D|-------------------------------|
A|19(32x)-16(16x)-15(16x)-14(32x)|
E|-------------------------------|

G|-----------------------------|
D|--14-14~----14-14~-----14-14~|
A|-------14~--------14~--------|
E|0~--------0~---------0~------|

G|-------------------------------------|
D|-------------------------13~---13~---|
A|15-15-15-15-15-15-15-14~----14~---14~|
E|-------------------------------------|

Pre-chorus No Bass

G|------------------------------|
D|------------------------------|
A|777-666----777-666------15~---|
E|--------77---------77-17---15~|
________________________^14x
G|---------------------------------------------------------------------------|
D|---------------------------------------------------------------------------|
A|777-666----777-666---------------------------------------------------------|
E|--------77---------77-9999999-888888888-7777777-666666666-5555555-777777777|

G|-----------------------------|
D|--14-14~----14-14~-----14-14~|
A|-------14~--------14~--------|2x
E|0~--------0~---------0~------|

G|----------------------------------------------------------|
D|---------7~------------9~-------------7~------------9~----|
A|-------47--7404-44-4-9~--9~---------47--7404-44-4-9~--9~--|
E|7-77-75-------------7------757-77-75-------------7------7~|

No Bass

G|------------------------------|
D|------------------------------|
A|777-666----777-666------15~---|
E|--------77---------77-17---15~|
________________________^14x
G|---------------------------------------------------------------------------|
D|---------------------------------------------------------------------------|
A|777-666----777-666---------------------------------------------------------|
E|--------77---------77-9999999-888888888-7777777-666666666-5555555-777777777|

G|--|
D|--|
A|--|
E|0~|

Time for the completely random hardcore ending!

G|-------------------------------------------------|
D|-------------------------------------------------|
A|--------------------------------------------111~1|
E|033010*-330100*-00*-33010*-330100*-333~3-00*-----|

G|-----------------------------|
D|-----------------------------|
A|------------------------111~1|
E|33010*-330100*-333~3-00*-----|

G|------------------------------------------------------------------|
D|-----444-4-445------444-4-445------444-5-779-7-5--444-4-445-------|
A|4-3-2---3-5----5---2---3-5----5------------------2---3-5----5-----|
E|-----------------5--------------1-2---3-5---------------------0-2~|

okay... woot...
and for those of you who wonder how long it takes to make a tab...
I said I started at 1:15... it is now 2:30...
Love the song though... so its worth it...
...kind of...sleep...
~**awfulGoodness**~
Suggest correction
Creating personal tab
Creating personal tab
You can edit any tab online and save it as your Personal.

You can edit, replace or remove any tab part or add personal notes – all changes will be seen only by you.

Personal tabs can be accessed anytime from any device, even offline.
Learn more »
Give kudos to tab author, rate the tab!
1 2 3 4 5
comments
print report bad tab
2 comments total.
0 reply
awfulGoodness 550 Apr 07, 2008 06:11 PM

ahhh... silly mistake... been doing it a lot lately but the intro riff is supposed to be 14's not 12's... I dont know why I've been doing that... anyways... getting fixed

0 reply
spitfirekid 10 Jul 27, 2009 07:19 PM

that looks realy hard

guest
You may want to rate the tab now too:
select rating
Wanna post a correction for this tab? Suggest correction