Oops, an error
Loading. Please wait.

Its My Day bass

by Matches
236 views 3 this week
1 commentread comment
1 2 3 4 5
2 more votes to show rating
add to favorites
×
Save as Personal and add changes to this tab that will be seen only by you. Learn more ›
×
You can save this tab as Personal to edit and correct it or add notes. All changes will be seen only by you. Learn more »
launch autoscroll
font size
0
reset
guitar tuner
edit
Autoscroll
slow
fast
+/-
esc
set tempo
stop
This is definatly the catchiest
song on the album... in my opinion anyways...
It's in Drop D

G|-------------------|
D|-------------------|
A|-------------------|4X
D|5555-2222-7777-0000|

G|-------------------|
D|-------------------|
A|-------------------|
D|5555-2222-7777-1111|

G|---------------------------------------|
D|---------------------------------------|
A|---------------------------------------|2X
D|5555-2222-7777-0000-5555-2222-7777-1111|

G|----|
D|----|
A|----|
D|1111|

G|-------|
D|-------|
A|-------|
D|0h10\\\|

G|----------------------------------------------------|
D|-------------9-----------9-------------------10-10--|
A|/101010101010-10-10101010-10/15\88888888-8888--8--8\|
D|----------------------------------------------------|

G|-------------------|
D|-------------------|
A|-------------------|
D|5555-2222-7777-1111|

G|---------------------------------------|
D|---------------------------------------|
A|---------------------------------------|2X
D|5555-2222-7777-0000-5555-2222-7777-1111|

G|----|
D|----|
A|----|
D|1111|

G|-------|
D|-------|
A|-------|
D|0h10\\\|

G|----------------------------------------------------|
D|-------------9-----------9-------------------10-10--|
A|/101010101010-10-10101010-10/15\88888888-8888--8--8\|
D|----------------------------------------------------|

G|-------------------|
D|-------------------|
A|-------------------|
D|5555-2222-7777-1111|

G|---------------------------------------|
D|---------------------------------------|
A|---------------------------------------|2X
D|5555-2222-7777-0000-5555-2222-7777-1111|

G|-------------------------------------------|
D|--------3~-3h5p3-------------10~--10h12p10~|
A|-------3--3-----5p3--------10---10---------|
D|/15~\3~------------3h5~-10~----------------|

G|----------------------------------------|
D|-----5~-5h7p5~-----3~-3h5p3-------------|
A|----5--5----------3--3-----5p3----------|
D|4h5~----------0h3~------------3h5~-7h10~|

G|-------------------|
D|-------------------|
A|-------------------|4X
D|5555-2222-7777-0000|

G|-------------------|
D|-------------------|
A|-------------------|
D|5555-2222-7777-1111|

G|---------------------------------------|
D|---------------------------------------|
A|---------------------------------------|2X
D|5555-2222-7777-0000-5555-2222-7777-1111|

G|-------------------------------------------|
D|--------3~-3h5p3-------------10~--10h12p10~|
A|-------3--3-----5p3--------10---10---------|
D|/15~\3~------------3h5~-10~----------------|

G|----------------------------------------|
D|-----5~-5h7p5~-----3~-3h5p3-------------|
A|----5--5----------3--3-----5p3----------|
D|4h5~----------0h3~------------3h5~-7h10~|

G|----|
D|----|
A|----|
D|1111|

This is a great opening for a CD...
eh? ehhhhhhh?
PUN!
~**awfulGoodness**~

            
            
Suggest correction
Creating personal tab
Creating personal tab
You can edit any tab online and save it as your Personal.

You can edit, replace or remove any tab part or add personal notes – all changes will be seen only by you.

Personal tabs can be accessed anytime from any device, even offline.
Learn more »
Give kudos to tab author, rate the tab!
1 2 3 4 5
comments
print report bad tab
1 comment total.
0 reply
csensesfail92 30 Dec 17, 2011 01:45 PM

not just the catchiest, it might as well be the only song on the album haha

guest
You may want to rate the tab now too:
select rating
Wanna post a correction for this tab? Suggest correction