Oops, an error
Loading. Please wait.

My Soft And Deep bass

by Matches
267 views 1 this week
no commentswrite comment
1 2 3 4 5
2 more votes to show rating
add to favorites
×
Save as Personal and add changes to this tab that will be seen only by you. Learn more ›
×
You can save this tab as Personal to edit and correct it or add notes. All changes will be seen only by you. Learn more »
launch autoscroll
font size
0
reset
guitar tuner
edit
Autoscroll
slow
fast
+/-
esc
set tempo
stop
This song could possibly be my favorite
off decomposer... maybe after sunburn vs.
anyway, My Soft and Deep has this 80s 
rock feel that only The Matches could Produce
Here we go... and for the record...
the more \'s or /'s put down the slower you slide...
and \ is down the board and / is vise versa...

G|-----------|
D|-----------|
A|7\\--------|x4
E|---0/0/0/8~|

G|-------------|
D|-------------|
A|-------------|x2
E|001100-001100|

G|-----------|
D|-----------|
A|7\\--------|
E|---0/0/0/8~|

G|-------------|
D|-------------|
A|-------------|
E|001100-001100|

G|-----------------------|
D|-----------------------|
A|--------------4~---5~6~|
E|5~-3-0-1~-1-0----5-----|

G|---------------------------------------|
D|---------------------------------------|
A|---------------------------------------|
E|0h11-11-1-0h11-11-1-1h33-33-3-1h33-33-3|

G|-------------------------------------------------|
D|-------------------------------------------------|
A|-------------------------------------------------|
E|0h11-11-1-0h11-11-1-3h55-55-5-3h55-3h5p3-33-1h3p1|

G|---------------------------|
D|---------------------------|
A|---------------------------|
E|0h11-11-1-0h11-11-1-3~-4///|

G|-----------|
D|-----------|
A|7\\--------|x4
E|---0/0/0/8~|

G|-------------|
D|-------------|
A|-------------|x2
E|001100-001100|

G|-----------|
D|-----------|
A|7\\--------|
E|---0/0/0/8~|

G|-------------|
D|-------------|
A|-------------|
E|001100-001100|

G|-----------------------|
D|-----------------------|
A|--------------4~---5~6~|
E|5~-3-0-1~-1-0----5-----|

G|---------------------------------------|
D|---------------------------------------|
A|---------------------------------------|
E|0h11-11-1-0h11-11-1-1h33-33-3-1h33-33-3|

G|-------------------------------------------------|
D|-------------------------------------------------|
A|-------------------------------------------------|
E|0h11-11-1-0h11-11-1-3h55-55-5-3h55-3h5p3-33-1h3p1|

G|-------------------------------------------|
D|-------------------------------------------|
A|-------------------------------------------|
E|11h3p11111-33h4p33333-44h5p44444-55h7p55555|

G|------------------------------------------|
D|------------------------------------------|
A|------------------------------------------|
E|11h3p11111-33h4p33333-44h5p44444-5555-3333|

G|---------------------------|
D|---------------------------|
A|---------------------------|
E|0h11-11-1-0h11-11-1-3~-4///|

G|-----------------------|
D|-----------------------|
A|--------------4~---5~6~|
E|5~-----1~--------------|

G|---------------------------------------------|
D|----7~7h9p7~-----------11~--12~--------------|
A|---7~7~----7-8~-8-7-------11---12~13~--7\\\\\|
E|5~------------------9~-----------------------|

G|-------------------------------------------|
D|-------------------------------------------|
A|-------------------------------------------|
E|11h3p11111-33h4p33333-44h5p44444-55h7p55555|

G|------------------------------------------|
D|------------------------------------------|
A|------------------------------------------|
E|11h3p11111-33h4p33333-44h5p44444-5555-3333|

G|-----------------------------------------------------------------------|
D|-----------------------------------------------------------------------|
A|-----------------------------------------------------------------------|
E|11111111-3333333-44444444-55555555-11111111-33333333-44444444-5555-3333|

G|-----------------------------------|
D|-----------------------------------|
A|-----------------------------------|
E|11111111-11111111-33333333-4444-4-4|

G|-------|
D|-------|
A|0h33*--|
E|------5|

Now that song is great to rock out too...
I do it often... I also have no life...
Ummmm... im going to cry now...
~**awfulGoodness**~
Suggest correction
Creating personal tab
Creating personal tab
You can edit any tab online and save it as your Personal.

You can edit, replace or remove any tab part or add personal notes – all changes will be seen only by you.

Personal tabs can be accessed anytime from any device, even offline.
Learn more »
Give kudos to tab author, rate the tab!
1 2 3 4 5
comments
print report bad tab
guest
You may want to rate the tab now too:
select rating
Wanna post a correction for this tab? Suggest correction