Oops, an error
Loading. Please wait.

Papercut Skin bass

version 1
version 1

Whole song

Interactive

by Matches
1,448 views 1 this week
2 commentsread comments
1 2 3 4 5
x 4
add to favorites
×
Save as Personal and add changes to this tab that will be seen only by you. Learn more ›
×
You can save this tab as Personal to edit and correct it or add notes. All changes will be seen only by you. Learn more »
launch autoscroll
font size
0
reset
guitar tuner
edit
Autoscroll
slow
fast
+/-
esc
set tempo
stop
Yo! another One...
This time it's the first single off the new decomposer cd!
Thats right! Papercut Skin Baby! Hit It!

Guitar Intro

G|----------------------------------------------------|
D|--4*---4*--4///--2--4*---4*-----------4*---4*--4*---|
A|--------------------------------222-----------------|
E|2*---2*--2*----00-2*---2*---000-----2*---2*--2*--000|

G|-------------------------------------|
D|--9*---9*--9///--2--4*---4*------4~--|
A|-------------------------------22~-3~|
E|7*---7*--7*----00-2*---2*--2p0-------|

G|-----------------------------------9h11p9h13-11-10---|
D|-------------------------9h11p9h11-----------------11|
A|44444444-55-5-77-7-----8-----------------------------|
E|-------------------999-------------------------------|

G|---------------------------------------|
D|---------------------------------------|
A|--------------------5~///17-77777-5-7-9|
E|2~///14-99999-7-6-7--------------------|

G|--------------------------------------9|
D|---------------------------------9--9--|
A|--------------------55555-44-5-77-77-7-|
E|2~///14-99999-7-6-7--------------------|

Little break

G|----------------------------------------------------|
D|--4*---4*--4///--2--4*---4*-----------4*---4*--4*---|
A|--------------------------------222-----------------|
E|2*---2*--2*----00-2*---2*---000-----2*---2*--2*--000|

G|-------------------------------------|
D|--9*---9*--9///--2--4*---4*------4~--|
A|-------------------------------22~-3~|
E|7*---7*--7*----00-2*---2*--2p0-------|

G|-----------------------------------9h11p9h13-11-10---|
D|-------------------------9h11p9h11-----------------11|
A|44444444-55-5-77-7-----8-----------------------------|
E|-------------------999-------------------------------|

G|-----------------------------------|
D|-----------------------------------|
A|---------44444444-55555555-77777777|
E|22222222---------------------------|

G|---------------------777---777-----|
D|-----------------------------------|
A|---------44444444-555---555--------|
E|22222222-----------------------2/2/|

G|-----------------------------------|
D|-----------------------------------|
A|---------44444444-55555555-77775420|
E|22222222---------------------------|

G|-------------------------------------------------------|
D|---------------------777---777--77----999---999-9-7----|
A|---------44444444-555---555---55---777---777---7-7-7\\\|
E|22222222-----------------------------------------------|

G|------------------------------------------------------|
D|------------------------------------------------------|
A|---------------------------55-17\\\5*5-47*-19\\\-7*7-5|
E|2*-14\\\2*-2*-2*-14\\\2*2-4---------------------------|

G|--------------------------------------------------------------|
D|--------------------------------------------------------------|
A|---------------------------55-17\\\5*5-4-77-19\\\-7\2/19191919|
E|2*-14\\\2*-2*-2*-14\\\2*2-4-----------------------------------|

G|------------------------------------|
D|----------------------------764-----|
A|---------------4-4-------------754--|
E|22222222-22222-----22222222-------75|

G|--------------------9~---9~----------------|
D|-------------------------------------------|
A|55555555-55555555-77-7777-77777777-77777777|
E|-------------------------------------------|

G|-----------------------------------|
D|--4*---4*--4///--2--4*---4*--------|
A|--------------------------------222|
E|2*---2*--2*----00-2*---2*---000----|

Techno Drum thingy

G|-----------------------------------------------------|
D|--4*---4*-----4--------------------------------------|
A|-------------2-3-222-444-555-777----55555555-77777777|
E|2*---2*--000---------------------2~------------------|

G|-----------------------------------------------|
D|-----------------------------------------------|
A|---------44444444-555-777-999-11-11-11-12121414|
E|22222222---------------------------------------|

G|----------------------------------------9-------9----|
D|44444444-33333333---------------------9--9--9-9--9---|
A|------------------55555555-55555555-77-7--77-7-7--7p0|
E|-----------------------------------------------------|

G|-----------------------------------|
D|-----------------------------------|
A|-----------------------------------|
E|22*-2*-2///14\\\2-22*-2*-2///14\\\2|

G|-------------------------------------------------------------------------|
D|-------------------------------------------------------------------------|
A|---------14141414-12121212-11-11-11-11-12121212-14141414-17171717*-202020|
E|10101010-----------------------------------------------------------------|

Will you look at that? I think I did a pretty good job...
Peace!
~**awfulGoodness**~

            
            
Suggest correction
Creating personal tab
Creating personal tab
You can edit any tab online and save it as your Personal.

You can edit, replace or remove any tab part or add personal notes – all changes will be seen only by you.

Personal tabs can be accessed anytime from any device, even offline.
Learn more »
comments
print report bad tab
2 comments total.
0 reply
System Addict 31 Feb 18, 2007 03:23 PM

Wow.....you tabbed this thing perfectly.
Awesome job dude, this song's hard enough to play, let alone tab.

0 reply
FalconNFlames 83 Mar 22, 2007 01:14 PM

the begining is different
G|------------------------------------
D|--4*---4*--4///--2--4*---4*-----222-
A|------------------------------------
E|2*---2*--2*----00-2*---2*---000-----
it plays this part more than just once... yea i guess you could figure it out for your self but still nice job on the tab dude... The Matches kick ass.

guest
You may want to rate the tab now too:
select rating
Wanna post a correction for this tab? Suggest correction