Oops, an error
Loading. Please wait.

Sunburn Versus The Rhinovirus bass

version 1
version 1

Whole song

Interactive

by Matches
562 views 1 this week
2 commentsread comments
1 2 3 4 5
x 5
add to favorites
×
Save as Personal and add changes to this tab that will be seen only by you. Learn more ›
×
You can save this tab as Personal to edit and correct it or add notes. All changes will be seen only by you. Learn more »
launch autoscroll
font size
0
reset
guitar tuner
edit
Autoscroll
slow
fast
+/-
esc
set tempo
stop
This song will melt your face off
seriously... I have no face...


WOOOooo...
G|1414-13*13*------------|
D|-----------------11--11|
A|-----------9-9-12--12--|8x
E|-----------------------|

G|--------------------------|
D|--------------------------|
A|99-11-12-9-7-9-5-4-5-4----|2x
E|----------------------5\\\|

G|-------------------------------------|
D|-------------------------------------|
A|9-9h11h12-12-------9-9h11h12-12------|2x
E|----------10~xxx-x-----------10~X-X-X|

G|-------------|
D|-------------|
A|9-9h11h12----|
E|----------12~|

G|------------------------------|
D|------------------------------|
A|------------------------------|
E|7~~~~X-X-X-7~~~~X-X-X-7*-7*-7*|

G|1414-13*13*------------|
D|-----------------11--11|
A|-----------9-9-12--12--|8x
E|-----------------------|

G|--------------------------|
D|--------------------------|
A|99-11-12-9-7-9-5-4-5-4----|2x
E|----------------------5\\\|

G|-------------------------------------|
D|-------------------------------------|
A|9-9h11h12-12-------9-9h11h12-12------|2x
E|----------10~xxx-x-----------10~X-X-X|

G|-------------|
D|-------------|
A|9-9h11h12----|
E|----------12~|

G|------------------------------|
D|------------------------------|
A|------------------------------|
E|7~~~~X-X-X-7~~~~X-X-X-7*-7*-7*|

G|-----------|
D|--------12~|
A|12~-14~----|
E|-----------|

G|----------------------------------------------------------------|
D|----------------------------------------------------------------|
A|121212-12-121212-12-141414-14-141414-14-999-9-999-9-777-7-777-7/|
E|----------------------------------------------------------------|

G|---------------------------------------|
D|---------------------------------------|
A|121212-12-121212-12-141414-14-141414-14|
E|---------------------------------------|

G|-----------------------------------|
D|-----------------------------------|
A|999-9-999-9-x-x-x-777-7-777-7-x-x-x|
E|-----------------------------------|

G|-------------------------------|
D|-------------------------------|
A|-------------------------------|
E|77777777-777777-99999999-999999|

G|-------------------------------------------|
D|-------------------------------------------|
A|99999999-999999-77777777-777777-x-x-x-BOOM!|
E|-------------------------------------------|

G|-------------------|
D|-------------------|
A|-------------------|
E|7~~~~X-X-X-7*-7*-7*|

G|-------------------------------------|
D|-------------------------------------|
A|9-9h11h12-12------9-9h11h12--12-----|2x
E|----------10~xxx-x-----------10~X-X-X|

G|-------------|
D|-------------|
A|9-9h11h12----|
E|----------12~|

G|------------------------------|
D|------------------------------|
A|------------------------------|
E|7~~~~X-X-X-7~~~~X-X-X-7*-7*-7*|

G|-------------------------------------|
D|-------------------------------------|
A|9-9h11h12-12-------9-9h11h12-12------|2x
E|----------10~xxx-x-----------10~X-X-X|

G|--------------------------------------------|
D|--------------------------------------------|
A|--------------------------------------------|
E|7~~~~X-X-X-7~~~~X-X-X-7*-7*-7-x-x-x-7*-7*-7*|

G|-------------------------------------|
D|-------------------------------------|
A|9-9h11h12-12-------9-9h11h12-12------|
E|----------10~xxx-x-----------10~X-X-X|

G|1414-13*13*------------|
D|-----------------11--11|
A|-----------9-9-12--12--|2x
E|-----------------------|

G|------------------------|
D|------------------11--11|
A|1212-11*11*-9-9-12--12--|
E|------------------------|

G|----|
D|8~~~|
A|9~~~|
E|----|

Sweet song...
Well worth losing my face for...
~**awfulGoodness**~
Suggest correction
Creating personal tab
Creating personal tab
You can edit any tab online and save it as your Personal.

You can edit, replace or remove any tab part or add personal notes – all changes will be seen only by you.

Personal tabs can be accessed anytime from any device, even offline.
Learn more »
comments
print report bad tab
2 comments total.
0 reply
cakexandxsodomy 10 Nov 05, 2006 12:05 PM

dude... your tabs are sweet. and this is my favorite song. you are now my hero. =]

0 reply
FalconNFlames 83 Mar 22, 2007 01:18 PM

wow dude another great tab for the matches i think i love you... in a none conventional sorta way... BLOW MY BRAINS OUT though my no-o-ose!

guest
You may want to rate the tab now too:
select rating
Wanna post a correction for this tab? Suggest correction