Oops, an error
Loading. Please wait.

What Katie Said bass

by Matches
2,630 views 1 this week
1 commentread comment
1 2 3 4 5
x 3
add to favorites
×
Save as Personal and add changes to this tab that will be seen only by you. Learn more ›
×
You can save this tab as Personal to edit and correct it or add notes. All changes will be seen only by you. Learn more »
launch autoscroll
font size
0
reset
guitar tuner
edit
Autoscroll
slow
fast
+/-
esc
set tempo
stop
Word, check it...
I used to do this whole big matches thing at the top
that takes to long... But there are still good tabs.
The bass in this song is so good...

G|--------------------------------------------|
D|9h11-11-11-11-11-11-11-9h11-11-11-9h11-11-11| 
A|--------------------------------------------|
E|--------------------------------------------|

G|15~13~---------|
D|------16~13~11~|
A|---------------|
E|---------------|

G|-------------------------------------|
D|888----------11-11-888---------------|
A|----11-11-11-----------11-11-11-11-11|
E|-------------------------------------|

G|15~13~---------|
D|------16~13~11~|
A|---------------|
E|---------------|

G|-------------------------------------|
D|888----------11-11-888---------------|
A|----11-11-11-----------11-11-11-11-11|
E|-------------------------------------|

G|---11*10*----------11*10*8*---------|
D|---------11*---------------11*88h9p8|
A|99----------99--66------------------|
E|------------------------------------|

G|---11*10*------11*------------11h13p11-11-10*---------|
D|---------11*------11h13p11-------------------11*88h9p8|
A|------------------------------------------------------|
E|77----------77-------------99-------------------------|

G|---11*10*----------11*10*8*---------|
D|---------11*---------------11*88h9p8|
A|99----------99--66------------------|
E|------------------------------------|

G|---11*10*------11*------------13p11~------|
D|---------11*------11h13p11----------13h15~|
A|------------------------------------------|
E|77----------77-------------99-------------|

G|-------------------------------------------------------|
D|-----------------44444444----------------------------4\|
A|2222222-44444444----------22222222-22222222-44444444---|
E|-------------------------------------------------------|

G|---------------|
D|-11~11~-6h8~/20|
A|9~-9~-9~-------|
E|---------------|

G|---11*10*----------11*10*8*---------|
D|---------11*---------------11*88h9p8|
A|99----------99--66------------------|
E|------------------------------------|

G|---11*10*------11*------------11h13p11-11-10*---------|
D|---------11*------11h13p11-------------------11*88h9p8|
A|------------------------------------------------------|
E|77----------77-------------99-------------------------|

G|---11*10*----------11*10*8*---------|
D|---------11*---------------11*88h9p8|
A|99----------99--66------------------|
E|------------------------------------|

G|---11*10*------11*------------13p11~------|
D|---------11*------11h13p11----------13h15~|
A|------------------------------------------|
E|77----------77-------------99-------------|

G|-------------------------------------------------------|
D|-----------------44444444----------------------------4\|
A|2222222-44444444----------22222222-22222222-44444444---|
E|-------------------------------------------------------|

G|-----------------------------------------------------------------------|
D|-----------------44444444----------------------------444444444---------|
A|2222222-44444444----------22222222-22222222-44444444-----------44444444|
E|-----------------------------------------------------------------------|

G|------------66------------------------44-------66-----------|
D|----------66--66-443311--11---------44--44---66--66-44444444|
A|2222222-44-------------44--442211-22-------44---------------|
E|------------------------------------------------------------|

G|-------------------------------------------|
D|9h11-11-11-9h11-11-11-9h11-11-11-9h11-11-11|
A|-------------------------------------------|
E|-------------------------------------------|

G|15~13~---------|
D|------16~13~11~|
A|---------------|
E|---------------|

G|-------------------------------------|
D|888----------11-11-888---------------|
A|----11-11-11-----------11-11-11-11-11|
E|-------------------------------------|

G|-----------------------------------|
D|88888888-88888888------------------|
A|------------------66666666-66666666|
E|-----------------------------------|

G|-----------------------------------|
D|-----------------------------------|
A|-----------------------------------|
E|77777777-77777777-99999999-99999999|

G|---------------11-10-8-6-88888888-88888888|
D|88888888-888h11---------------------------|
A|------------------------------------------|
E|------------------------------------------|

G|----------------------------------|
D|----------------------------------|
A|----------------------------------|
E|77777777-7777777-99999999-99999999|

G|----44-------66-------------------|
D|--44--44---66--66-443311--11------|
A|22-------44-------------44--442211|
E|----------------------------------|

G|--------------------------------------------------------|
D|------------------------------------------------------4~|
A|22222222-44444444-22222222-44444444-22222222-44444444---|
E|--------------------------------------------------------|

Well there youo have it... Decomposer... 9/12/06...
Cannot Wait! GAHHHH!
~**awfulGoodness**~

            
            
Suggest correction
Creating personal tab
Creating personal tab
You can edit any tab online and save it as your Personal.

You can edit, replace or remove any tab part or add personal notes – all changes will be seen only by you.

Personal tabs can be accessed anytime from any device, even offline.
Learn more »
Give kudos to tab author, rate the tab!
1 2 3 4 5
comments
print report bad tab
1 comment total.
0 reply
awfulGoodness 550 Sep 01, 2006 09:36 PM

When i tabbed this song it was not the version on the CD it was for the HelL3 show... so... If theres little things missing... im sorry... but I think I put down the jist of it.
~**awfulGoodness**~

guest
You may want to rate the tab now too:
select rating
Wanna post a correction for this tab? Suggest correction