Oops, an error
Loading. Please wait.

Yankee In A Chip Shop bass

by Matches
537 views 1 this week
2 commentsread comments
1 2 3 4 5
2 more votes to show rating
add to favorites
×
Save as Personal and add changes to this tab that will be seen only by you. Learn more ›
×
You can save this tab as Personal to edit and correct it or add notes. All changes will be seen only by you. Learn more »
launch autoscroll
font size
0
reset
guitar tuner
edit
Autoscroll
slow
fast
+/-
esc
set tempo
stop
This song was almost put on Decomposer
so... to me this song is older but still good

G|------------------------------------------|
D|------------------------------7p5~5-------|
A|11233333333-33333-11233333333------7p5---5|
E|--------------------------------------7p5-|

G|--------|
D|--------|
A|--------|8x
E|33355333|

G|------------------------------------------|
D|------------------------------7p5~5-------|
A|11233333333-33333-11233333333------7p5---5|
E|--------------------------------------7p5-|

G|--------|
D|--------|
A|--------|4x
E|33355333|

G|------------------------------------------|
D|------------------------------7p5~5-------|
A|11233333333-33333-11233333333------7p5---5|
E|--------------------------------------7p5-|

G|--------|
D|--------|
A|--------|3x
E|33355333|

G|------------|
D|7p5~5-------|
A|-----7p5---5|
E|--------7p5-|

G|-----------------------------------|
D|-----------------------------------|
A|33333333-33333-11233333333-55555555|
E|-----------------------------------|

G|----------------------------|
D|----------------------------|
A|----------------------------|4x
E|0~3p0-5p0-3p0-5p0-7p0-3p0-0~|

Break

G|--------|
D|--------|
A|--------|7x
E|33355333|

G|------------|
D|7p5~5-------|
A|-----7p5---5|
E|--------7p5-|

G|--------|
D|--------|
A|--------|7x
E|33355333|

G|------------|
D|7p5~5-------|
A|-----7p5---5|
E|--------7p5-|

G|-----------------------------------|
D|-----------------------------------|
A|33333333-33333-11233333333-55555555|
E|-----------------------------------|

G|--------|
D|--------|
A|--------|3x
E|33355333|

G|------------|
D|7p5~5-------|
A|-----7p5---5|
E|--------7p5-|

G|-----------------------------------|
D|-----------------------------------|
A|33333333-33333-11233333333-55555555|
E|-----------------------------------|

G|----------------------------|
D|----------------------------|
A|----------------------------|2x
E|0~3p0-5p0-3p0-5p0-7p0-3p0-0~|

G|--------|
D|--------|
A|--------|3x
E|33355333|

G|------------|
D|7p5~5-------|
A|-----7p5---5|
E|--------7p5-|

G|--------------------------|
D|--------------------------|
A|33333333-33333-11233333333|
E|--------------------------|

Now every one say 'Hey!'
HEY!
Thats fun stuff
~**awfulGoodness**~

            
            
Suggest correction
Creating personal tab
Creating personal tab
You can edit any tab online and save it as your Personal.

You can edit, replace or remove any tab part or add personal notes – all changes will be seen only by you.

Personal tabs can be accessed anytime from any device, even offline.
Learn more »
Give kudos to tab author, rate the tab!
1 2 3 4 5
comments
print report bad tab
2 comments total.
0 reply
awfulGoodness 550 Mar 24, 2008 10:30 PM

ahhh! stupid mistake! I dont know why but I put 2's instead of 5's during the verse! its being updated! I know! I suck!

0 reply
awfulGoodness 550 Mar 24, 2008 10:35 PM

and it updated much quicker than I thought it would... alomst instantly... ha!

guest
You may want to rate the tab now too:
select rating
Wanna post a correction for this tab? Suggest correction