Oops, an error
Loading. Please wait.

Human Tab

2,902 views 3 this week
no commentswrite comment
1 2 3 4 5
2 more votes to show rating
add to favorites
launch autoscroll
font size
0
reset
how to read this tab
guitar tuner
Autoscroll
slow
fast
+/-
esc
set tempo
stop
Help us to improve Ultimate-Guitar.com Take our survey!
×
Author
tabs by sammee.
youtube: sammeeantha.
see me playing it here! - http://au.youtube.com/watch?v=fSED0OJh7Wk

INTRO + VERSES
E|--7--5--5--3--|
B|--5--5--3--3--|
G|--5--5--2--0--|
D|--7--0--2--2--|
A|--0--0--2--3--|
e|--0--x--x--0--|

PRECHORUS (if you could look at me...)
E|--x--x--|         |--x--x--|
B|--3--3--|         |--3--3--|
G|--0--0--| x2 then |--0--0--| x2
D|--x--4--|         |--0--4--|
A|--3--3--|         |--5--5--|
e|--0--0--|         |--0--0--|

CHORUS
  i'm so human..    everytime i..
E|--------------|  |--------------|
B|--3--3--3--3--|  |--3--3--3--3--|
G|--0--0--0--0--|  |--0--0--0--0--| x2
D|--0--0--x--0--|  |--0--4--0--4--|
A|--x--x--2--5--|  |--3--3--5--5--|
E|--3--2--0-----|  |--0--0--0--0--|

http://www.myspace.com/mateo
Suggest correction
Give kudos to tab author, rate the tab!
1 2 3 4 5
comments
print report bad tab
guest
You may want to rate the tab now too:
select rating
Wanna post a correction for this tab? Suggest correction