Oops, an error
Loading. Please wait.

Dime Tab

26 views 1 this week
no commentswrite comment
1 2 3 4 5
3 more votes to show rating
add to favorites
launch autoscroll
font size
0
reset
how to read this tab
guitar tuner
Autoscroll
slow
fast
+/-
esc
set tempo
stop
Help us to improve Ultimate-Guitar.com Take our survey!
×
Ahi les dejo una cancion de Mateo Lynch
es lo que pude sacar espero que les guste
Rock Nacional!!!!
Perú... ATHOS

Primera Guitarra

1|--5--3---------3--5----8----------|
2|-------6------6-------------------|
3|----------5-----------------------|
4|----------------------------------|
5|----------------------------------|
6|----------------------------------|


Segunda Guitarra --> Guitarra de fondo en la introducción...
(con acordes usando el pulgar casi al mismo tiempo que el medio)
            F               A#          F      C    F      A#
1|----------------------------------------------------------------------|
2|--2-2-2-2-2-2-2-2------------------2-2-2-2-------2-2------------------|
3|------------------3-3-3-3-3-3-3-3-----------0-0-------3-3-3-3-3-3-3---|
4|----------------------------------------------------------------------|
5|-----------------1-1-1-1-1-1-1-1-----------3-3-------1-1-1-1-1-1-1----|
6|-1-1-1-1-1-1-1-1------------------1-1-1-1-------1-1-------------------|


F
Es el fin
A#
de una historia sin final feliz
Dm                         A#
Un cuento de hadas q termina gris

F
Y fingir
A#
sonreír sin estar feliz
Dm                              A#
Una vez más soy yo quien termina solo

F
Y es que te quiero siento pienso y quiero
A#
Tus manos labios ojos besos
Dm                        A#
todo eres para mi y ya no estas


F
Dime que esto no es verdad
A#
Que es solo un mal sueño y que pronto volverás
C
sabes que no hay nadie
A#
que te quiera como lo hago yo...

F                  A#
Acércate a mí... más y más y más...
Dm                                 A#
quiero sentir tu cuerpo bajo el mió una vez más


F
Y ya no
A#
ya no ya no ya no
Dm                     A#
Ya no quiero estar así no no oo


F
Dime que esto no es verdad
A#
Que es solo un mal sueño y que pronto volverás
C
sabes que no hay nadie
A#
que te quiera como lo hago yo...

F A# Dm A# (acordes que acompañan al punteo)


1|--------------------------8-------8-----------------------------------|
2|-----5-6-8-6-5-6-8-6--5-6---6-5-6---6--8-6-5-6-8-6-5--5-4-3---5-4-3---|
3|------------------------------------------------------------4-------4-|
4|----------------------------------------------------------------------|
5|----------------------------------------------------------------------|
6|----------------------------------------------------------------------|

(Conforme va cantando el punteo acompaña)


F
Fuiste mi primer y único amor
A#
Fuiste mi primera vez mi ilusión
Dm                             A#
Es muy difícil aceptar que se acabo

F
Aún guardan los secretos de nuestro amor
A#
Las paredes en mi oscura habitación
Dm                             A#
Las sabanas aun se aferran a tu olor


F
Dime que esto no es verdad
A#
Que volverás , que volverás
C
Que volverás ?
A#
Que te quiera como lo hago yo

F
Dime que esto no es verdad
A#
que es solo un mal sueño y que pronto volverás
C
Sabes que no hay nadie
(como yooo!!)
A#
Que te quiera como lo hago yo


F
Dime que esto no es verdad
A#                                                    F
Que es solo un mal sueño y que pronto Volverás...


Super xvre
.°  WîZªrÐ ·]¦!·O.o°.
Cualkier duda lanplay_185@
Pee - Wee
Suggest correction
Give kudos to tab author, rate the tab!
1 2 3 4 5
comments
print report bad tab
guest
You may want to rate the tab now too:
select rating
Wanna post a correction for this tab? Suggest correction