Oops, an error
Loading. Please wait.

Quiero Volar Tab

version 1
version 1

Whole song

15 views 1 this week
no commentswrite comment
1 2 3 4 5
3 more votes to show rating
add to favorites
launch autoscroll
font size
0
reset
how to read this tab
guitar tuner
×
Best way to learn
"Quiero Volar"
Autoscroll
slow
fast
+/-
esc
set tempo
stop
*Quiero Volar*( Cancion de la serie Esta Sociedad)

*Se Repite esto en las estrofas:

**Intro**
e------5-------------5-----------------7---------------7----
b---3-----3-------------3-----------5-----5---------------5-
g4----------------4--------------6------------------6-------
d-----------------------------------------------------------
a-----------------------------------------------------------
E-----------------------------------------------------------x2

Cada     vez   que    trato   de   decir   lo   que   siento
e------5-------------5-----------------7---------------7----
b---3-----3-------------3-----------5-----5---------------5-
g4----------------4--------------6------------------6-------
d-----------------------------------------------------------
a-----------------------------------------------------------
E-----------------------------------------------------------x2

empeoro las cosas y miento
dejando al silencio hablar por mi
mientras que yo quedo solo aquí
viéndote partir.

y es que tu felicidad me es triste,
y es que tu amor también duele?

Solo quiero dejar de pensar
Comenzar a soñar y a olvidar

**CORO**

   G       A
Yo quiero volar lejos de aquí
   G       A
yo quiero volar
   G       A
tocar una estrella
   G           A       G
si tan solo pudiera entrar
      A
en tu corazón

Estrofa

Tu          me          enseñaste          a            amar
e------5-------------5-----------------7---------------7----
b---3-----3-------------3-----------5-----5---------------5-
g4----------------4--------------6------------------6-------
d-----------------------------------------------------------
a-----------------------------------------------------------
E-----------------------------------------------------------
me hiciste jurar me hiciste llorar
ahora todo queda atrás
aquí todo esta tan mal y nada sale bien
aquí todo esta al revés y tu no muestras interés

**CORO**

   G       A
Yo quiero volar lejos de aquí
   G       A
yo quiero volar
   G       A
tocar una estrella
   G           A       G
si tan solo pudiera entrar
      A
en tu corazón


*********Fin********
Suggest correction
Give kudos to tab author, rate the tab!
1 2 3 4 5
comments
print report bad tab
guest
You may want to rate the tab now too:
select rating
Wanna post a correction for this tab? Suggest correction