Oops, an error
Loading. Please wait.

Quiero Volar Tab

version 2
version 2

Whole song

15 views 1 this week
no commentswrite comment
1 2 3 4 5
3 more votes to show rating
add to favorites
launch autoscroll
font size
0
reset
how to read this tab
guitar tuner
Autoscroll
slow
fast
+/-
esc
set tempo
stop
Bueno aqui estan los verdaderos arpegios de la cancion
espero q este bien..suerte xD

Intro:
            G                     A
e|-----5--------5----|--------7-------7-------
b|--------3-------3--|----------5-------5-----
g|-------------------|------------------------
d|-------------------|------------------------
a|--5---------5------|----7--------7----------
E|-------------------|-5----------------------


Riff1
            G                     A
e|-----5--------5----|-------7-------7--------
b|--------3-------3--|---------5-------5------
g|-------------------|------------------------
d|-------------------|------------------------
a|---5--------5------|---7--------7-----------
E|-3-----------------|-5----------------------

Con el riff 1:

G                       A
Cada vez que trato de decir lo que siento
     G                   A
empeoro las cosas y miento
   G                   A
dejando al silencio hablar por mi
             G               A
mientras que yo quedo solo aquí
  G          A   riff 2
viéndote partir.

Riff 2:
               G                        A
e|--------5---------5----|--------7---------7-----
b|-----3----3----------3-|-----5-----5---------5--
g|---4----------4--------|--6------------6--------   x2
d|-----------------------|------------------------
a|-----------------------|------------------------
E|-----------------------|------------------------

Con el riff2

G                       A
Y es que tu felicidad me es triste,
G                     A
Y es que tu amor también duele?

G                       A
Solo quiero dejar de pensar
             G            A
Comenzar a soñar y a olvidar

CORO
 G          D
Yo quiero volar lejos de aquí
 G          D
yo quiero volar
   G
tocar una estrella
        D               G
si tan solo pudiera entrar
      D
en tu corazón

 G - A [x2] con el riff2


Con el riff2

G                  A
Tu me enseñaste a amar
       G                A
me hiciste jurar me hiciste llorar
       G           A
ahora todo queda atrás
       G                  A
aquí todo esta tan mal y nada sale bien
       G                        A
aquí todo esta al revés y no muestras interés

G                       A
Solo quiero dejar de pensar
             G            A
Comenzar a soñar y a olvidar

CORO

Despues el coro sube de tono:

 A          E
Yo quiero volar lejos de aquí
 A          E
yo quiero volar
   A
tocar una estrella
        E               A
si tan solo pudiera entrar
      E
en tu corazón
         A      E
Quiero volar....
         A      E
Quiero volar....
   A               E
quiero volar, escapar a algun lugar
      A                 E
derrepente vendras, derrepente tu iras


A - E (x2)  A - E...


*Cualquier error o duda, xfa avisa x msn...xD
Suggest correction
Give kudos to tab author, rate the tab!
1 2 3 4 5
comments
print report bad tab
guest
Wanna post a correction for this tab? Suggest correction