Oops, an error
Loading. Please wait.

Destino Azul Tab

22 views 1 this week
no commentswrite comment
1 2 3 4 5
3 more votes to show rating
add to favorites
×
Save as Personal and add changes to this tab that will be seen only by you. Learn more ›
×
You can save this tab as Personal to edit and correct it or add notes. All changes will be seen only by you. Learn more »
save as personal
new!
launch autoscroll
font size
0
reset
how to read this tab
guitar tuner
Autoscroll
slow
fast
+/-
esc
set tempo
stop
Verso:

  Gm              C           [ch]Fdd9             D#              Dm7[/ch]
  Yo      no confundo  realidad       con ganas      de cambiar
e ---------------------------------3------------1------------1-----------
B --------------------1----------1---1--------4---4--------1---1---------
G -------3----------0---0------2-------2----3-------3----2-------2-------
D -----5---5------2-------2--3------------1------------0-----------------
A ---5-------5--3--------------------------------------------------------
E -3---------------------------------------------------------------------
  C      A7      Dm           A7sus4
e ----------------------------------0------------------------------------
B ---------------------1----------3---3----------------------------------
G -----0------2------3---3------0-------0--------------------------------
D ---2------2------2-------2---------------------------------------------
A -3------4------0------------0------------------------------------------
E -----------------------------------------------------------------------

Esto se repite por el resto de la canción, menos en el estribillo.


Estribillo:

  F             Dm                 Bb              F
  Hombre de destino azul, qué quieres de mí?   qué quieres?
e -------------------1------1------------------------3--3--3-----------
B ------------------3-3----3-3---------3------3-----1-1--1--1----------
G ----2------2-----2---2--2---2-------3-3----3-3---2---2--2--2--------- x2
D ---3-3----3-3---0------------------3---3--3---3-3--------------------
A --3---3--4---4---------3----------1------3---------------------------
E -1------1------------------------------------------------------------
  G#        Gm      F#     F       G#        Gm     F#        F     F
  Sé que quizás es difícil de ver. Siempre soñé lo mejor para vos.
e ---------------------------------------------------------------------
B ---------------------------------------------------------------------
G ----5------3------3------2----------5------3------3------2-----3-----
D ---6-6----5-5----4-4----3-3--------6-6----5-5----4-4----3-3----1-----
A --6---6--5---5--4---4--3---3------6---6--5---5--4---4--3---3---2-----
E -4------3------2------1----------4------3------2------1--------3-----


Verso

Yo no confundo realidad
con ganas de cambiar
Todo ese tiempo que pasó,
nada ha cambiado en mí.
Sólo sigo buscando esa señal
que hoy palpita en mí.
Sos mi propia elección
hay todo entre los dos.

Estribillo:

Hombre de destino azul
qué quieres de mí? qué quieres?
Dime destino azul,
qué buscas en mí? qué buscas?
Sé que quizás es difícil de ver
Siempre soñé lo mejor para vos.

Cobra sentido la verdad
cuando es del corazón
Busca en el reloj y en este viento
que sopla en las mañanas

Estribillo

    Gm          C                [ch]Fdd9       D#        F[/ch]
  Fuimos     soñando    y se cumplió      podría ser peor
e ---------------------------------3------------1------3-----------------
B --------------------1----------1---1--------4---4----1-----------------
G -------3----------0---0------2-------2----3-------3--2-----------------
D -----5---5------2-------2--3------------1------------3-----------------
A ---5-------5--3--------------------------------------------------------
E -3---------------------------------------------------------------------
Suggest correction
Give kudos to tab author, rate the tab!
1 2 3 4 5
comments
print report bad tab
guest
Wanna post a correction for this tab? Suggest correction