Oops, an error
Loading. Please wait.

Retrato En La Pared Chords

version 1
version 1

Whole song

28 views 1 this week
no commentswrite comment
1 2 3 4 5
3 more votes to show rating
add to favorites
launch autoscroll
font size
0
reset
transpose
0
reset
simplify chords
display chords
guitar tuner
Autoscroll
slow
fast
+/-
esc
set tempo
stop
Strumming
There is no strumming pattern for this song yet. and get +5 IQ
espero les guste cualquier comentario escribanme.
Requinto de introduccion


e-------------------------------------------------
B-------------------------------------------------
G-------------------------------------------------
D--------3---5--5b---3-------3~-------------------
A---3/5------------------5------------------------
E-------------------------------------------------


e---------------------------------------------------------------------
B---------------------------------------------------------------------
G------------------5--------------------------------------------------
D--------3---5/7------7---5-------------------------------------------
A---5-----------------------7--5---8p7h8p7h8p7h8p7h8p7h8p7h8p7--------
E--------------------------------------------------------------8---5--

e--/15~-13-12----13-12-------12--------------------------------
B------------15-------15-13----15-13-12----13--12--------------
G---------------------------------------14--------14-12-14-----
D--------------------------------------------------------------
A--------------------------------------------------------------
E--------------------------------------------------------------

1er intro:
Dm Am G Dm Dsus4 Dm D

2do intro
G D C D x4

Verso
D                                       C
Era un dia muy lluvioso y me acordaba de ella
D                                    C
Su sonrisa de ojos tristes su Mirada eterna
D                                          C
Y un retrato en la pared es todo lo que me queda
              G
Lo que me queda-a

Caminando por la calle buscando una respuesta
Una muralla me has dejado sobre la cabeza
He intentado olvidarla pero no me deja
Ni me deja-a

Pre coro
G               C       G
Y jugamos en la arena, dejando huellas
      D             C
Que el mar se robo..

Coro
G        D         C    G       D          C
Como poderte olvida-ar? Como poderte olvida-ar?
G        D        C     G       D           C
Quiero dejar de pensar, para poderte olvidar

De ahi sigue otro verso y luego viene una parte
de un requinto, para ese requinto va asi:

Em Dm Am G

Cuando llega a ?y jugamos en la arena..?
lleva lo mismo que en el verso, y cuando llega a
 ?era un dia muy lluvioso y me acordaba de ella?
lleva lo mismo del verso. Y ahi se la llevan

espero les salga es muy sencilla, bendiciones

esta cancion la pueden encontrar en 
Suggest correction
Give kudos to tab author, rate the tab!
1 2 3 4 5
comments
print report bad tab
guest
You may want to rate the tab now too:
select rating
Wanna post a correction for this tab? Suggest correction