Oops, an error
Loading. Please wait.

Wonderfu Life Tab

1,887 views 15 this week
no commentswrite comment
1 2 3 4 5
please rate
add to favorites
launch autoscroll
font size
0
reset
how to read this tab
guitar tuner
Autoscroll
slow
fast
+/-
esc
set tempo
stop
Help us to improve Ultimate-Guitar.com Take our survey!
×
Author
Capo on first fret

 Intro


e -------------------------------------------------------------------|
B ------0---2-0---------0---2-0---------0---2-0---------0---2-0------|
G ------2--------0------2--------0------2--------0------2--------0---|
D ----2---------------2---------------2---------------2--------------|
A --0---------------0---------------0---------------0----------------|
E -------------------------------------------------------------------|

verse


e ------------------------------------------0----0---------------------|
B ------0---2-0----------0---2-0-----0-1---3---3-------1-----1-0-----0-|
G ------2--------0-------2---------0-----------------0-----0-------0---|
D ----2----------------2---------0-------2---------------2-------0-----|
A --0----------------0---------2-------3---------------3---------------|
E -------------------------------------------------------------3-------|

e ------------------------------------------0-------------------------|
B ------0---2-0----------0---2-0-----0-1---3--------------------------|
G ------2--------0-------2---------0----------------------------------|
D ----2----------------2---------0-------2------0---------------------|
A --0----------------0---------2-------3------3---3-2-----------------|
E --------------------------------------------------------------------|

Pre Chorus
2X
e------------------------------------------------0-------0-----010----|
B--------0-------1-------0-------3-------1-----3-------3----------0---|
G------2-------2-------0-------0-------0-------------2-------2--------|
D----2-------2-------0-------0-------2-------2-----0-------0----------|
A--0-------0-------2-------2-------3-------3--------------------------|
E---------------------------------------------------------------------|

Chorus
2X
e---------------------------------------------010-------3-------10---|
B-------1---------------1---------------1-------------0-------0------|
G-----2---------------0---------------2-----2-------0-------0--------|
D---2-------2---0---2-------2---0---2-----0--------------------------|
A-0-------0---2---3-------3---2---0----------------------------------|
E-------------------------------------------------3-------3----------|

Here I go out to see again
The sunshine fills my hair
And dreams hang in the air

Look at me standing
Here on my own again
Upstraight in the sunshine

No need to laugh and cry
It's a wonderful wonderful life
No need to run and hide
It's a wonderful wonderful life
Gold's in the sky and in my blue eye
You know it feels unfair
There's magic everywhere

And I need a friend, oh I need a friend
To make me happy
Not stand here on my own

Look at me standing
Here on my own again
Upstraight in the sunshine

No need to laugh and cry
It's a wonderful, wonderful life
No need to run and hide
It's a wonderful, wonderful life

Look at me standing
Here on my own again
Upstraight in the sunshine

http://www.mathildesanting.info/
Suggest correction
Give kudos to tab author, rate the tab!
1 2 3 4 5
comments
print report bad tab
guest
You may want to rate the tab now too:
select rating
Wanna post a correction for this tab? Suggest correction