Oops, an error
Loading. Please wait.

Per Un Ora D Amore chords

version 2
version 2

Whole song

214 views 3 this week
no commentswrite comment
1 2 3 4 5
1 last vote to show rating
add to favorites
×
Save as Personal and add changes to this tab that will be seen only by you. Learn more ›
×
You can save this tab as Personal to edit and correct it or add notes. All changes will be seen only by you. Learn more »
launch autoscroll
font size
0
reset
transpose
0
reset
simplify chords
display chords
guitar tuner
edit
Autoscroll
slow
fast
+/-
esc
set tempo
stop
Author
Difficulty
Strumming
There is no strumming pattern for this song yet. and get +5 IQ
Capo fret IV

  Am                                        Emadd9
  ^ V  ^ V  ^ V  ^ V   ^ V  ^ V  ^ V  ^ V  
|-0-0--0-0--0-0--0-0---0-0--0-0--0-0--0-0---------0---|
|-0-1--0-1--0-1--0-1---0-1--0-1--0-1--0-1-------0-----|
|-2-2--2-2--2-2--2-2---2-2--2-2--2-2--2-2-----0-------|  4v
|-2-2--2-2--2-2--2-2---2-2--2-2--2-2--2-2---4---------|
|-0-0--0-0--0-0--0-0---0-0--0-0--0-0--0-0-------------|
|-----------------------------------------------------|
                                            let ring

Am             C                  F  Dm  E7
Per un'ora d'amore non so cosa farei
Am               C                  F   E7
per poterti sfiorare non so cosa darei
           Am          Em
chiudo gli occhi senza te
      Dm                 E7
le serate non finiscono mai
      Am          Em
sole giallo mare blu
       Dm                   G
non vorrei farti restare così
      Dm                E7
un ricordo d'estate di più
F                E                      Am
e per un'ora d'amore venderei anche il cuore
F                E                      Am    E7
e per un'ora d'amore venderei anche il cuore

Am             C                  F  Dm  E7
Per un'ora d'amore non so cosa farei
Am               C                  F   E7
per poterti sfiorare non so cosa darei
          Am            Em
chiudo gli occhi, ti vorrei
        Dm                 E7
non nei sogni ma così come sei
      Am          Em
sole giallo mare blu
       Dm                   G
mi risveglio ora che manchi tu
      Dm                  E7
aspettarti e sapere che ormai
F                E                      Am
io per un'ora d'amore venderei anche il cuore
F                E                      Am    E7
io per un'ora d'amore venderei anche il cuore

Am    C    F   Dm    Em   Am    C [solo]
Fm    G#   C#  A#m    C
Fm    G#   C#  C

           Fm            Cm
Chiudo gli occhi penso a te
    A#m                  C7
i ricordi non finiscono mai
      Fm          Cm
sole giallo mare blu
    A#m                        D#
come il vento sei volata anche tu
      A#m               C7
non rimane che dire vorrei
C#               C                      Fm 
e per un'ora d'amore venderei anche il cuore
C#               C                      Fm   C7
e per un'ora d'amore venderei anche il cuore

Fm             G#                C#            C         Fm
Per un'ora d'amore non so cosa farei   (la la la la lala la)
Fm             G#                C#            C         Fm
per poterti sfiorare non so cosa darei (la la la la lala la)
... ad lib


[solo]

|-----------5-5--5-5-5-3----------------------------------|
|-5-5-5-5-5--------------5---------------------3-3-3-5-5--|
|--------------------------5-----5-4-4-4-5-5-5------------|
|---------------------------------------------------------|
|---------------------------------------------------------|
|---------------------------------------------------------|

|-----------8-8--8-8-8-5----------------------------------|
|-5-5-5-5-5--------------5--------------------------------|
|---------------------------------------------------------|
|---------------------------------------------------------|
|---------------------------------------------------------|
|---------------------------------------------------------|

            
            
Suggest correction
Creating personal tab
Creating personal tab
You can edit any tab online and save it as your Personal.

You can edit, replace or remove any tab part or add personal notes – all changes will be seen only by you.

Personal tabs can be accessed anytime from any device, even offline.
Learn more »
Give kudos to tab author, rate the tab!
1 2 3 4 5
comments
print report bad tab
guest
You may want to rate the tab now too:
select rating
Wanna post a correction for this tab? Suggest correction