Oops, an error
Loading. Please wait.

Jerusalem bass

version 1
version 1

Whole song

Interactive

356 views 1 this week
no commentswrite comment
1 2 3 4 5
3 more votes to show rating
add to favorites
×
Save as Personal and add changes to this tab that will be seen only by you. Learn more ›
×
You can save this tab as Personal to edit and correct it or add notes. All changes will be seen only by you. Learn more »
launch autoscroll
font size
0
reset
guitar tuner
edit
Autoscroll
slow
fast
+/-
esc
set tempo
stop
Author
Difficulty
Matisyahu Jerusalem by Gustavo Amaro 
Video: https://www.youtube.com/watch?v=epPetRFzBvs

   [ # GUITAR INTRO ****************************************************************** ]
G||-------------------|-------------------|-------------------|------------------------|
D||-------------------|-------------------|-------------------|------------------------|
A||-------------------|-------------------|-------------------|------------------------|
E||-------------------|-------------------|-------------------|------------------4--3--|
B||-------------------|-------------------|-------------------|----------------4-------|

[ # PART 1 ********************************************************************
--------------------------|--------------------------|--------------------------|
--------------------------|--------------------------|--------------------------|
--------------------------|--4--------------------3--|--------------------------|
--1-----------------1--3--|--------------------3-----|--4-----------------3--4--|
------------------4-------|------------------4-------|------------------4-------|

*********************************************************************************
---------------------------|--------------------------|--------------------------|
---------------------------|--------------------------|--------------------------|
--6---------------6--------|--------------------------|--4--------------------3--|
---------------3-----4--3--|--1-----------------1--3--|--------------------3-----|
-------------4-------------|------------------4-------|------------------4-------|

***************************************************** ] [ # CHORUS **************
--------------------------|---------------------------|--------------------------|
--------------------------|---------------------------|-------3-3-3-3-3-----3----|
--------------------------|--6---------------6--------|------------------3-------|
--4-----------------3--4--|---------------3-----4--3--|--1-----------------------|
------------------4-------|-------------4-------------|--------------------------|

********************************************************************************************
--------------------------|--------------------------|--------------------------------------|
-------6-6-6-6-6-----6----|--------------------------|--------------------------------------|
--4---------------4-------|-------6-6-6-6-6-----6----|--------13-13-13-13-13------13-13-13--|
--------------------------|--4---------------4-------|--11--------------------11------------|
--------------------------|--------------------------|--------------------------------------|

********************************************************************************
--------------------------|--------------------------|--------------------------|
-------3-3-3-3-3-----3----|-------6-6-6-6-6-----6----|--------------------------|
------------------3-------|--4---------------4-------|-------6-6-6-6-6-----6----|
--1-----------------------|--------------------------|--4---------------4-------|
--------------------------|--------------------------|--------------------------|

********************************* ][ # PART 2 *****************************************
----------------------------------|--------------------------|--------------------------|
----------------------------------|--------------------------|--------------------------|
--------13-13-13-13-13------------|--------------------------|--4--------------------3--|
--11------------------------4--3--|--1-----------------1--3--|--------------------3-----|
--------------------------4-------|------------------4-------|------------------4-------|


********************************************************************************
--------------------------|---------------------------|--------------------------|
--------------------------|---------------------------|--------------------------|
--------------------------|--6---------------6--------|--------------------------|
--4-----------------3--4--|---------------3-----4--3--|--1-----------------1--3--|
------------------4-------|-------------4-------------|------------------4-------|


********************************************************************************
--------------------------|--------------------------|---------------------------|
--------------------------|--------------------------|---------------------------|
--4--------------------3--|--------------------------|--6---------------6--------|
--------------------3-----|--4-----------------3--4--|---------------3-----4--3--|
------------------4-------|------------------4-------|-------------4-------------|


********************************************************************************
--------------------------|--------------------------|--------------------------|
--------------------------|--------------------------|--------------------------|
--------------------------|--4--------------------3--|--------------------------|
--1-----------------1--3--|--------------------3-----|--4-----------------3--4--|
------------------4-------|------------------4-------|------------------4-------|


***************************][ # CHORUS *******************************************
---------------------------|--------------------------|--------------------------|
---------------------------|-------3-3-3-3-3-----3----|-------6-6-6-6-6-----6----|
--6---------------6--------|------------------3-------|--4---------------4-------|
---------------3-----4--3--|--1-----------------------|--------------------------|
-------------4-------------|--------------------------|--------------------------|

********************************************************************************************
--------------------------|--------------------------------------|--------------------------|
--------------------------|--------------------------------------|-------3-3-3-3-3-----3----|
-------6-6-6-6-6-----6----|--------13-13-13-13-13------13-13-13--|------------------3-------|
--4---------------4-------|--11--------------------11------------|--1-----------------------|
--------------------------|--------------------------------------|--------------------------|

******************************************************************************]
--------------------------|--------------------------|------------------------|
-------6-6-6-6-6-----6----|--------------------------|------------------------|
--4---------------4-------|-------6-6-6-6-6-----6----|------------------------|
--------------------------|--4---------------4-------|--------------13s----1--|
--------------------------|--------------------------|------------------------|

[ # PART 3 ******************************************************************
--------------------------|--------------------------|------------------------|
--------------------------|--------------------------|------------------------|
--------------------------|-----------------------6--|-------3----------3-----|
--1-----------------1--3--|-------3------------3-----|------------------------|
------------------4-------|------------------4-------|------------------------|

************************][ # PART 4 **************************************************
------------------------|------------------------------|------------------------------|
------------------------|------------------------------|------------------------------|
------------------------|--------------3---------------|--------------6-------------6-|
-------3----------3-----|--1----1----1---1----1----1-1-|--4----4----4---4----4----4---|
------------------------|------------------------------|------------------------------|

********************************************************][ # PART 5 **************
------------------------------|-------------------------|--------------------------|
--------------5-------------5-|-------------------------|-------3-3-3-3-3-----3----|
--3----3----3---3----3----3---|--------------4----------|------------------3-------|
------------------------------|--3----3----3------------|--1-----------------------|
------------------------------|-------------------------|--------------------------|

*****************************************************************************************
--------------------------|--------------------------|----------------------------------|
-------6-6-6-6-6-----6----|--------------------------|----------------------------------|
--4---------------4-------|-------6-6-6-6-6-----6----|---------13------13s-15----13\----|
--------------------------|--4---------------4-------|--11--x------11-------------------|
--------------------------|--------------------------|----------------------------------|

********************************************************************************
--------------------------|--------------------------|--------------------------|
-------3-3-3-3-3-----3----|-------6-6-6-6-6-----6----|--------------------------|
------------------3-------|--4---------------4-------|-------6-6-6-6-6-----6----|
--1-----------------------|--------------------------|--4---------------4-------|
--------------------------|--------------------------|--------------------------|

**********************************][ # CHORUS *******************************************
-----------------------------------|--------------------------|--------------------------|
-----------------------------------|-------3-3-3-3-3-----3----|-------6-6-6-6-6-----6----|
------13-13-13---------13-13-13----|------------------3-------|--4---------------4-------|
--11------------x--11--------------|--1-----------------------|--------------------------|
-----------------------------------|--------------------------|--------------------------|

********************************************************************************************
--------------------------|--------------------------------------|--------------------------|
--------------------------|--------------------------------------|-------3-3-3-3-3-----3----|
-------6-6-6-6-6-----6----|--------13-13-13-13-13------13-13-13--|------------------3-------|
--4---------------4-------|--11--------------------11------------|--1-----------------------|
--------------------------|--------------------------------------|--------------------------|

********************************************************************************************
--------------------------|--------------------------|--------------------------------------|
-------6-6-6-6-6-----6----|--------------------------|--------------------------------------|
--4---------------4-------|-------6-6-6-6-6-----6----|--------13-13-13-13-13------13-13-13--|
--------------------------|--4---------------4-------|--11--------------------11------------|
--------------------------|--------------------------|--------------------------------------|

********************************************************************************
--------------------------|--------------------------|--------------------------|
-------3-3-3-3-3-----3----|-------6-6-6-6-6-----6----|--------------------------|
------------------3-------|--4---------------4-------|-------6-6-6-6-6-----6----|
--1-----------------------|--------------------------|--4---------------4-------|
--------------------------|--------------------------|--------------------------|

********************************************************************************************
--------------------------------------|--------------------------|--------------------------|
--------------------------------------|-------3-3-3-3-3-----3----|-------6-6-6-6-6-----6----|
--------13-13-13-13-13------13-13-13--|------------------3-------|--4---------------4-------|
--11--------------------11------------|--1-----------------------|--------------------------|
--------------------------------------|--------------------------|--------------------------|

 ************************************************************]
--------------------------|----------------------------------||
--------------------------|----------------------------------||
-------6-6-6-6-6-----6----|--------13-13-13-13-13------------||
--4---------------4-------|--11--------------------11\-------||
--------------------------|----------------------------------||

            
            
Suggest correction
Creating personal tab
Creating personal tab
You can edit any tab online and save it as your Personal.

You can edit, replace or remove any tab part or add personal notes – all changes will be seen only by you.

Personal tabs can be accessed anytime from any device, even offline.
Learn more »
Give kudos to tab author, rate the tab!
1 2 3 4 5
comments
print report bad tab
guest
You may want to rate the tab now too:
select rating
Wanna post a correction for this tab? Suggest correction