Oops, an error
Loading. Please wait.

Jerusalem Tab

version 1
version 1

Whole song

Interactive

26,021 views 33 this week
no commentswrite comment
1 2 3 4 5
x 5
add to favorites
launch autoscroll
font size
0
reset
how to read this tab
guitar tuner
×
Best way to learn
"Jerusalem"
Autoscroll
slow
fast
+/-
esc
set tempo
stop
MATISYAHU
Jerusalem (live version)
Tab by: Adam W

CHORUS

 Fmin                              C#Maj
--8------8------8------8------11~~~-9------9------9------9------9~~~---|
----9------9------9------9------------9------9------9------9-----------|
------10-----10-----10-----10-----------10-----10-----10-----10--------|
-----------------------------------------------------------------------|
-----------------------------------------------------------------------|
-----------------------------------------------------------------------|

  G#Maj                        D#Maj
--4-----4-----4-----4-----8~~~-6-----6-----6-----6-----6~~~-----------|
----4-----4-----4-----4----------8-----8-----8-----8------------------|
------5-----5-----5-----5----------8-----8-----8-----8----------------|
----------------------------------------------------------------------|
----------------------------------------------------------------------|
----------------------------------------------------------------------|
Repeat through Chorus (all chords patterns picked in triplets)


VERSE

 Fmin                   C#Maj
--8---8---8---8----8-----9---9---9---9----9----|
--9---9---9---9----9-----9---9---9---9----9----|
---10--10--10--10--10-----10--10--10--10--10---|
---10--10--10--10---------11--11--11--11-------|
--------------------------11--11--11--11-------|
-----------------------------------------------|

 G#Maj              D#Maj
--4--4--4--4---4----6--6--6--6---6----|
--4--4--4--4---4----8--8--8--8---8----|
---5--5--5--5--5-----8--8--8--8--8----|
---6--6--6--6--------8--8--8--8-------|
---6--6--6--6-------------------------|
--------------------------------------|


BRIDGE
  1 + 2 + 3 + 4 + 1 + 2 + 3 + 4 + 1 + 2 + 3 + 4 + 1 + 2 + 3 + 4 +
 Fmin            G#Maj           Cmin            Gmin
--8-------------------------------8-------8-------10------10--|
--9---------------9---------------8-------8-------11------11--|
--10--------------8---------------8-------8-------12------12--|
--10--------------10--------------10------10------12------12--|
----------------------------------10------10------------------|
--------------------------------------------------------------|

  1  e  +  a   2  e  +  a   3  e  +  a  4  e  +  a  1  e  +  a   2  e  +  a   3  e  +  a  4  e  +  a
 Fmin                                              G#Maj
--8--------8------8---------8--------8-----8----------------------------------------------------------|
--9--------9------9---------9--------9-----9--------9--------9------9---------9--------9-----9--------|
--10-------10-----10--------10-------10----10-------8--------8------8---------8--------8-----8--------|
--10-------10-----10--------10-------10----10-------10-------10-----10--------10-------10----10-------|
------------------------------------------------------------------------------------------------------|
------------------------------------------------------------------------------------------------------|

  1  e  +  a   2  e  +  a   3  e  +  a  4  e  +  a  1  e  +  a   2  e  +  a  3  e  +  a  4  e  +  a
 Cmin                                              Gmin
--8--------8------8---------8--------8-----8--------10-------10-----10--------10-------10----10---|
--8--------8------8---------8--------8-----8--------11-------11-----11--------11-------11----11---|
 --8--------8------8---------8--------8-----8--------12-------12-----12--------12-------12----12--|
--10-------10-----10--------10-------10----10-------12-------12-----12--------12-------12----12---|
--10-------10-----10--------10-------10----10-----------------------------------------------------|
--------------------------------------------------------------------------------------------------|

ORDER OF SONG

1. CHORUS
2. VERSE
3. CHORUS
4. VERSE
5. CHORUS
6. BRIDGE
7. CHORUS
Suggest correction
comments
print report bad tab
guest
You may want to rate the tab now too:
select rating
Wanna post a correction for this tab? Suggest correction