Oops, an error
Loading. Please wait.

King Without A Crown solo tab

version 1
version 1
28,461 views 3 this week
10 commentsread comments
1 2 3 4 5
x 6
add to favorites
×
Save as Personal and add changes to this tab that will be seen only by you. Learn more ›
×
You can save this tab as Personal to edit and correct it or add notes. All changes will be seen only by you. Learn more »
launch autoscroll
font size
0
reset
how to read this tab
guitar tuner
edit
Autoscroll
slow
fast
+/-
esc
set tempo
stop
Author
Standard tuning
e--------------------------------------------------------------------------|
B---------------------8h9p8------------8h9-11-9-8----8----------8b---------|
G-7h8----7h8p7h8—10---------8h10p8—10-------------10---10-8h10-8--8h10-8h10|
D--------------------------------------------------------------------------|
A--------------------------------------------------------------------------|
E--------------------------------------------------------------------------|

i finally saw the live video and so i need to correct a few things
e----------------------------------------------------------------------|
B----------------------------------------------------------------------|
G-p8-7h8p7-5--------5-5-------7----7----7----7----7b----7----7----7----8|
D------------8-8-8-8----5--5-5--5-5--5-5--5-5--5-5--5-5--5-5--5-5--5-5-|
A----------------------------------------------------------------------|
E----------------------------------------------------------------------|

e---------------|
B---------------|
G-8h10-8h10-12--|
D---------------|
A---------------|
E---------------|continues
                 
e------------------------------------------------------15--------------|
B---------------------------15h16h18-16-15---------18b----18-16p15-----|
G-15-17-17-------15h16h17-----------------17-15-17-----------------15--|
D----------15h17-------------------------------------------------------|
A----------------------------------------------------------------------|
E----------------------------------------------------------------------|

e-----18b-18-15--------------------------------------------------------|
B---------15----18-16-15----18-16-15-------16-15----------15-----------|
G-15---------------------17----------17-15-------17-15-------17-15-----|
D------------------------------------------------------17----------17--|
A----------------------------------------------------------------------|
E----------------------------------------------------------------------|

e------------------------15-15-----------------------------------------|
B--------------------18b-------18-16-15-16-18-16-15-16-----------------|
G--------------15h17-----------------------------------15h17-15h17-----|
D--15------------------------------------------------------------------|
A-----17-15-17---------------------------------------------------------|
E----------------------------------------------------------------------|

e----------------------------------------------------------------------|
B----------------------------------------------------------------------|
G—15h17-17-17-17----------------------------0-0-0-0-0-0-0-0-0-0-0-0-0--|
D----------------------------8-10-10--------5-5-5-5-5-5-5-5-5-5-5-5-5--|
A-----------------8-8-10-10-----------8-8-8----------------------------|
E----------------------------------------------------------------------|

This is my first solo so its probably not that good

            
            
Suggest correction
Creating personal tab
Creating personal tab
You can edit any tab online and save it as your Personal.

You can edit, replace or remove any tab part or add personal notes – all changes will be seen only by you.

Personal tabs can be accessed anytime from any device, even offline.
Learn more »
comments
print report bad tab
10 comments total. Showing first comments.
0 reply
wambulance 20 May 05, 2006 05:11 PM

thank you so much i been waiting for one of these you rock man

0 reply
iamjosh 339 Oct 04, 2006 02:59 PM

wow, this is really good

0 reply
mUsIcsOuLsTrEsS 10 Nov 05, 2006 05:02 PM

I

guest
You may want to rate the tab now too:
select rating
Wanna post a correction for this tab? Suggest correction