Oops, an error
Loading. Please wait.

One Day tab

version 3
version 3

Whole song

17,835 views 144 this week
2 commentsread comments
1 2 3 4 5
x 5
add to favorites
×
Save as Personal and add changes to this tab that will be seen only by you. Learn more ›
×
You can save this tab as Personal to edit and correct it or add notes. All changes will be seen only by you. Learn more »
launch autoscroll
font size
0
reset
how to read this tab
guitar tuner
edit
Autoscroll
slow
fast
+/-
esc
set tempo
stop
Author
Difficulty
Song: One Day (Live Version)
Artist: Matisyahu
Album: Live at Stubb's Vol. 1
Tabbed by SPENCER LARSEN
**check out some of my songs on my profile**


Intro played through 2x
e----------13----------13--------------13--11----------I
B--11---11----10----10--------11----11--------11-------I
G-----10---------10--------------12--------------12----I
D---------------------------------------------------13-I
A------------------------------------------------------I
E------------------------------------------------------I

Verse played through 4x
e----------13----------13--------------13--11----------I
B--11---11----10----10--------11----11--------11-------I
G-----10---------10--------------12--------------12----I
D---------------------------------------------------13-I
A------------------------------------------------------I
E------------------------------------------------------I

Chorus played through 4x (with drive)
e----------13----------13--------------13--11----------I
B--11---11----10----10--------11----11--------11-------I
G-----10---------10--------------12--------------12----I
D---------------------------------------------------13-I
A------------------------------------------------------I
E------------------------------------------------------I

Verse
e--6--6--6--6--1--1--1--1--3--3--3--3--6--6--6--6-I
B--6--6--6--6--1--1--1--1--3--3--3--3--8--8--8--8-I
G--7--7--7--7--2--2--2--2--3--3--3--3--8--8--8--8-I
D--8--8--8--8--3--3--3--3--5--5--5--5--8--8--8--8-I
A-------------------------------------------------I
E-------------------------------------------------I

e---------1-----1-----3-----3-----------13--11---------I
B---------1-----1-----3-----3--------11--------11------I
G---------2-----2-----3-----3-----12-------------12----I
D---------3-----3-----5-----5--13-------------------13-I
A------------------------------------------------------I
E------------------------------------------------------I

e--6--6--6--6--1--1--1--1--3--3--3--3--6--6--6--6-I
B--6--6--6--6--1--1--1--1--3--3--3--3--8--8--8--8-I
G--7--7--7--7--2--2--2--2--3--3--3--3--8--8--8--8-I
D--8--8--8--8--3--3--3--3--5--5--5--5--8--8--8--8-I
A-------------------------------------------------I
E-------------------------------------------------I

e--6--6--6--6--1--1--1--1--3--3--3--3--6\-------I
B--6--6--6--6--1--1--1--1--3--3--3--3--8\-------I
G--7--7--7--7--2--2--2--2--3--3--3--3--8\-------I
D--8--8--8--8--3--3--3--3--5--5--5--5--8\-------I
A-----------------------------------------------I
E-----------------------------------------------I

Chorus 6x (with drive)
e----------13----------13--------------13--11----------I
B--11---11----10----10--------11----11--------11-------I
G-----10---------10--------------12--------------12----I
D---------------------------------------------------13-I
A------------------------------------------------------I
E------------------------------------------------------I

Instrumental (2:12-5:28)
[I won’t tab out the solo. Just improvise with an EBOW]

Chorus/Outro (5:28)
6x with drive
4 or 5x without drive

e----------13----------13--------------13--11----------I
B--11---11----10----10--------11----11--------11-------I
G-----10---------10--------------12--------------12----I
D---------------------------------------------------13-I
A------------------------------------------------------I
E------------------------------------------------------I

            
            
Suggest correction
Creating personal tab
Creating personal tab
You can edit any tab online and save it as your Personal.

You can edit, replace or remove any tab part or add personal notes – all changes will be seen only by you.

Personal tabs can be accessed anytime from any device, even offline.
Learn more »
comments
print report bad tab
2 comments total.
-1 reply
Brize 10 Jan 08, 2012 03:39 AM

Hey there! Really nice Tab, i looked long time, and now finally someone tabbed the live version, thank you!

But I am not quite sure about the 13 on the B string (5th note). Sounds kind of wrong too me, or am I wrong?

0 reply
spenlars 151 Jan 10, 2012 08:43 PM

You are welcome! Yeah, upon listening to the song closer, I noticed that I wasn't playing it right at that spot. I went back and fixed it and now I'm pretty sure it's 100%. Let me know what you think and if I need to fix anything else.

guest
You may want to rate the tab now too:
select rating
Wanna post a correction for this tab? Suggest correction