Oops, an error
Loading. Please wait.

Sea To Sea bass

8,126 views 3 this week
1 commentread comment
1 2 3 4 5
x 5
add to favorites
×
Save as Personal and add changes to this tab that will be seen only by you. Learn more ›
×
You can save this tab as Personal to edit and correct it or add notes. All changes will be seen only by you. Learn more »
launch autoscroll
font size
0
reset
guitar tuner
edit
Autoscroll
slow
fast
+/-
esc
set tempo
stop
Difficulty
Sea To Sea
Matisyahu
Live At Stubb's (2005)

RIFF
|-----------------------------------------------|
|----3---3------3---3------3---3----------------|
|------5----------5----------5-----------5------|
|--3----------3----------3-------3-3-6-6--------|


|-----------------------------------------------|
|----3---3------3---3------3---3----------------|
|------5----------5----------5-------5------5---|
|--3----------3----------3-------3-6----3-6-----|


|-----------------------------------------------|
|----3---3------3---3------3---3----------------|
|------5----------5----------5-----------5------|
|--3----------3----------3-------3-3-6-6--------|


|-----------------------------------------------|
|----3---3------3---3------3---3--3h5-3-0-3h5---|
|------5----------5----------5------------------|
|--3----------3----------3----------------------|

|-----------------------------------------------|
|----3---3------3---3------3---3----------------|
|------5----------5----------5-----------5------|
|--3----------3----------3-------3-3-6-6--------|

|-----------------------------------------------|
|----3---3------3---3------3---3--3h5-3-0-3h5---|
|------5----------5----------5------------------|
|--3----------3----------3----------------------|

|----------------------------------|
|----3---3------3---3------3---3---|
|------5----------5----------5-----|
|--3----------3----------3---------|

Pequeño Cambio Al Final Del RIFF (1:13)
|---------------------------------------------------------|
|---------------------------------------------------------|
|--------3h5-3h5----3-5-3----3-5-3----3-5-3-----5-----5---|
|--3-3-3----------3--------3--------3-------3-6---3-6-----|

|------------------------------------------|
|------------------------------------------|
|----3-5-3---3h5-3h5---3-5-3-----5-----5---|
|--3-------3---------3-------3-6---3-6-----|

RIFF
|-----------------------------------------------|
|----3---3------3---3------3---3----------------|
|------5----------5----------5-----------5------|
|--3----------3----------3-------3-3-6-6--------|

|-----------------------------------------------|
|----3---3------3---3------3---3--3h5-3-0-3h5---|
|------5----------5----------5------------------|
|--3----------3----------3----------------------|

|-----------------------------------------------|
|----3---3------3---3------3---3----------------|
|------5----------5----------5-----------5------|
|--3----------3----------3-------3-3-6-6--------|

|-----------------------------------------------|
|----3---3------3---3------3---3----------------|
|------5----------5----------5-----------5------|
|--3----------3----------3-------3-3-6-6--------|

Verso
|------------------------------------|
|--------------------------0---------|
|----1-0-----1-0-1-3---3-4---4-3-1---|
|--3-----1-0---------2---------------|

|------------------------------------|
|--------------------------0-0-------|
|----1-0-----1-0-1-3---3-------3-5---|
|--3-----1-0---------3---3-----------|

|------------------------------------|
|------------------------------------|
|----1-0-----1-0-1-3---3-4---4-3-1---|
|--3-----1-0---------2-----0---------|

|----------------------------------------|
|------------------------------0-----3---|
|----1-0-----1-0-1-3-3-3-3-3-3---3-5-----|
|--3-----1-0-----------------------------|

RIFF
|-----------------------------------------------|
|----3---3------3---3------3---3----------------|
|------5----------5----------5-----------5------|
|--3----------3----------3-------3-3-6-6--------|


|-----------------------------------------------|
|----3---3------3---3------3---3----------------|
|------5----------5----------5-------5------5---|
|--3----------3----------3-------3-6----3-6-----|


|-----------------------------------------------|
|----3---3------3---3------3---3----------------|
|------5----------5----------5-----------5------|
|--3----------3----------3-------3-3-6-6--------|

|-----------------------------------------------|
|----3---3------3---3------3---3----------------|
|------5----------5----------5-----------5------|
|--3----------3----------3-------3-3-6-6--------|

Verso
|------------------------------------|
|--------------------------0---------|
|----1-0-----1-0-1-3---3-4---4-3-1---|
|--3-----1-0---------2---------------|

|------------------------------------|
|--------------------------0-0-------|
|----1-0-----1-0-1-3---3-------3-5---|
|--3-----1-0---------3---3-----------|

|------------------------------------|
|------------------------------------|
|----1-0-----1-0-1-3---3-4---4-3-1---|
|--3-----1-0---------2-----0---------|

|----------------------------------------|
|------------------------------0-----3---|
|----1-0-----1-0-1-3-3-3-3-3-3---3-5-----|
|--3-----1-0-----------------------------|

RIFF Final
|------------------------------|
|------------------------------|
|--------3-5--5-5-6-5----------|
|--3-3-6--------------6--------| X8

|------------------------------|
|--7-5-3-1-0---------------3---|
|------------3-1-0-1-3-0-3-----|
|------------------------------|


Juan Francisco Proaño
jf_kubaru@hotmail.com

            
            
Suggest correction
Creating personal tab
Creating personal tab
You can edit any tab online and save it as your Personal.

You can edit, replace or remove any tab part or add personal notes – all changes will be seen only by you.

Personal tabs can be accessed anytime from any device, even offline.
Learn more »
comments
print report bad tab
1 comment total.
0 reply
jhovik 10 Jul 31, 2013 08:43 PM

Verse (Correction there is No Open E)
|------------------------------------|
|--------------------------0---------|
|----1-0-----1-0-1-3---3-4---4-3-1---|
|--3-----3-1---------2---------------|

|------------------------------------|
|--------------------------0-0-------|
|----1-0-----1-0-1-3---3-------3-5---|
|--3-----3-1---------3---3-----------|

|------------------------------------|
|------------------------------------|
|----1-0-----1-0-1-3---3-4---4-3-1---|
|--3-----3-1---------2-----1---------|

|----------------------------------------|
|------------------------------0-----3---|
|----1-0-----1-0-1-3-3-3-3-3-3---3-5-----|
|--3-----3-1-----------------------------|

guest
Wanna post a correction for this tab? Suggest correction