Oops, an error
Loading. Please wait.

Youth tab

version 2
version 2

Whole song

3,822 views 1 this week
no commentswrite comment
1 2 3 4 5
2 more votes to show rating
add to favorites
×
Save as Personal and add changes to this tab that will be seen only by you. Learn more ›
×
You can save this tab as Personal to edit and correct it or add notes. All changes will be seen only by you. Learn more »
launch autoscroll
font size
0
reset
how to read this tab
guitar tuner
edit
Autoscroll
slow
fast
+/-
esc
set tempo
stop
MATISYAHU
Youth
tab by: Adam W (www.adamweinbergmusic.com)


INTRO
----------------------------------------------------------------------|
----------------------------------------------------------------------|
--------------------------5--5--5----------------(Repeat 4X)----------|
----7--7--7----7--7--7----5--5--5----5--5--5--------------------------|
----7--7--7----7--7--7----3--3--3----5--5--5--------------------------|
----5--5--5----5--5--5---------------3--3--3--------------------------|


VERSE

Amin          GMAJ          Amin          Dmin
--5----5--------3----3--------5----5--------5----5--------------------|
--5----5--------3----3--------5----5--------6----6--------------------|
--5----5--------4----4--------5----5--------7----7------(repeat)------|
--7----7--------5----5--------7----7--------7----7--------------------|
--7----7--------5----5--------7----7----------------------------------|
----------------------------------------------------------------------|


Chorus

FMaj                     EMaj                  Amin*
--------------8--------------------7----------------------------------------5------------|
------10---------10----------9---------9----------------5----------------5-----5---------|
--10------10---------10---9------9---------9---------5-----5h7--5-----5-----------5------|
------------------------------------------------5h7----------------7---------------------|
-----------------------------------------------------------------------------------------|
-----------------------------------------------------------------------------------------|


FMaj                     EMaj**                 Amin
--------------8--------------------7----------------------8--8--7----------8--8--7--|
------10---------10----------9---------9--------------10----------------10----------|
--10------10---------10---9------9---------9--------9-------------------------------|
------------------------------------------------------------------------------------|
------------------------------------------------------------------------------------|
------------------------------------------------------------------------------------|

* Guitarist messes around w/hammer-ons from 5th to 7th fret on the Amin (give a listen)
** 2nd time through chorus end by strumming the Emaj and let hang


INTERLUDE

------------------------10-10-8---------------------------------------|
--------------10-10-10------------------------------------------------|
-------7-7-7---------------------10-9-7----(Repeat 4X)----------------|
----------------------------------------------------------------------|
----------------------------------------------------------------------|
----------------------------------------------------------------------|

ORDER OF SONG:

1.  INTRO
2.  VERSE
3.  CHORUS
4.  INTERLUDE
5.  VERSE
6.  CHORUS
7.  INTERLUDE
8.  SOLO
9.  (INTRO is the out to the Solo)
10. CHORUS
11. INTERLUDE
Suggest correction
Creating personal tab
Creating personal tab
You can edit any tab online and save it as your Personal.

You can edit, replace or remove any tab part or add personal notes – all changes will be seen only by you.

Personal tabs can be accessed anytime from any device, even offline.
Learn more »
Give kudos to tab author, rate the tab!
1 2 3 4 5
comments
print report bad tab
guest
Wanna post a correction for this tab? Suggest correction