Oops, an error
Loading. Please wait.

Anter-Ouache Bass Tab

version 1
version 1

Whole song

Interactive

19 views 1 this week
no commentswrite comment
1 2 3 4 5
3 more votes to show rating
add to favorites
launch autoscroll
font size
0
reset
guitar tuner
Autoscroll
slow
fast
+/-
esc
set tempo
stop
Help us to improve Ultimate-Guitar.com Take our survey!
×
Author
Difficulty
newg [tm] 45,821
novice
----------------------------------------------------------------------------------------------------
                         Matmatah - Anter-ouache/Ouach
----------------------------------------------------------------------------------------------------

Album : La Ouache (1998)
Tempo : 100
E-mail: gwendal.mollo@orange.fr
Tabbed by: newg    (http://profile.ultimate-guitar.com/newg/)

[intro]
Tempo=100
G|--------------------|
D|--------------------|
A|--------------------|
E|--0-----------------| x4

G|--------------------|
D|--------------------|
A|--------------------|
E|--5-----------------| x4  
 
jouer 2 fois le tout


Tempo=150
G|--------------------|
D|--------------------|
A|------7-------5-----|
E|--0-0----0-0--------|

[Bridge]
G|--------------------|
D|--------------------|
A|--2/7-----2/7-------|
E|--------------------| x4

G|--------------------|
D|--------------------|
A|------7-------5-----|
E|--0-0----0-0--------|
Suggest correction
Give kudos to tab author, rate the tab!
1 2 3 4 5
comments
print report bad tab
guest
You may want to rate the tab now too:
select rating
Wanna post a correction for this tab? Suggest correction