Oops, an error
Loading. Please wait.

Anter-Ouache Tab

version 1
version 1

Whole song

Interactive

4 views 1 this week
no commentswrite comment
1 2 3 4 5
3 more votes to show rating
add to favorites
launch autoscroll
font size
0
reset
how to read this tab
guitar tuner
Autoscroll
slow
fast
+/-
esc
set tempo
stop
Help us to improve Ultimate-Guitar.com Take our survey!
×
Author
Difficulty
newg [tm] 45,817
novice
----------------------------------------------------------------------------------------------------
                         Matmatah - Anter-ouache/Ouach
----------------------------------------------------------------------------------------------------

Album : La Ouache (1998)
Tempo : 100
E-mail: gwendal.mollo@orange.fr
Tabbed by: newg    (http://profile.ultimate-guitar.com/newg/)

[intro]
Tempo=100
|----------------------------------------|
|-----------9--10----9-----------9L-9----|
|--9-----11----------------9-------------|
|----------------------------------------|
|----------------------------------------|
|----------------------------------------| x4

                                                        
|--12----14-16-17----16----------16L16---|
|--------------------------17------------|
|----------------------------------------|
|----------------------------------------|
|----------------------------------------|
|----------------------------------------| x4  
 
jouer 2 fois le tout


Tempo=150
Gtr 1
|----------------------------|----------------------------|
|--0--0--0--0--3--3--3--3----|--0--0--0--0--5--5--5--5----|
|----------------------------|----------------------------|
|----------------------------|----------------------------|
|----------------------------|----------------------------|
|----------------------------|----------------------------|

Gtr 2
|----------------------------|----------------------------|
|----------------------------|----------------------------|
|----------------------------|----------------------------|
|--9---x-x-x-x-x-x-x-x-x-x-x-|--9---x-x-x-x-x-x-x-x-x-x-x-|
|--9---x-x-x-x-x-x-x-x-x-x-x-|--9---x-x-x-x-x-x-x-x-x-x-x-|
|--7---x-x-x-x-x-x-x-x-x-x-x-|--7---x-x-x-x-x-x-x-x-x-x-x-|

[Bridge]
Gtr 1
|----------------------------|
|--0--0s-5-----0--0s-12------|
|----------------------------|
|----------------------------|
|----------------------------|
|----------------------------| x4

Gtr 2
|----------------|
|----------------|
|--4s-9--4s-9----|
|--4s-9--4s-9----|
|--2s-7--2s-7----|
|----------------|



|----------------------------|----------------------------|
|--0--0--0--0--3--3--3--3----|--0--0--0--0--5--5--5--5----|
|----------------------------|----------------------------|
|----------------------------|----------------------------|
|----------------------------|----------------------------|
|----------------------------|----------------------------|
Suggest correction
Give kudos to tab author, rate the tab!
1 2 3 4 5
comments
print report bad tab
guest
You may want to rate the tab now too:
select rating
Wanna post a correction for this tab? Suggest correction