Oops, an error
Loading. Please wait.

Tentei Te Esquecer Tab

312 views 3 this week
no commentswrite comment
1 2 3 4 5
2 more votes to show rating
add to favorites
launch autoscroll
font size
0
reset
how to read this tab
guitar tuner
Autoscroll
slow
fast
+/-
esc
set tempo
stop
Help us to improve Ultimate-Guitar.com Take our survey!
×
Tom: B
Introdução: (B E F#) 2 vezes

Solo na introdução:
 
E|--------------------------------------------------------|
B|--------------------------------------------------------|
G|------4---4--4/8--8/9\9----------------4--4--6--8--8/11-|
D|----4--------------------9--6--4----4-------------------|
A|--------------------------------------------------------|
e|--------------------------------------------------------|


E|--------------------------------------------------------|
B|--------------------------------------------------------|
G|----11p9--8--9--11--11/13-------------------------------|
D|---------------------------11---------------------------|
A|--------------------------------------------------------|
e|--------------------------------------------------------|


	  B	         E	   F#
Ah! Como  quero te encontrar novamente
        B	   E	   F#
Estou sozinho procurando você
	 B	      E	        F#
Ah! Como quero te abraçar loucamente
      C#m	          E               F#	  B    E F#
Olhar dentro dos teus olhos e dizer "não vivo sem você"


2ª Parte:

	 B	    E	       F#
O tempo passa cai à noite e o dia vem
	 B	         E        F#
Tento fingir, mas não dá pra esconder...
	  B            	 E	      F#
Ah! Eu sonhei nas noites vagas com teu amor 
          G#m        E        F#
Provei teu beijo magoei minha dor


Refrão:

  	     B    E  	  F#
Tentei te esquecer... não deu
	     B		E	      F#
Pensei que fosse mais forte que esse amor
	  B	E     F#
Ó minha paixão... sou teu
	      B	          E		F#
Por mais que eu queira disfarçar como estou
	G#m		     E	        C#m	      F#          B  
O meu coração se nega a aceitar, passa o tempo não  esqueço de te amar.

Solo: B E F# B E F#


E|---------------------------------------------------------------------------|
B|---------------------------------------------------------------------------|
G|----6fullbend------------------4--6/8--6--3h4h6----------4--4--6--8--8/11--|
D|----------------4--------4--6--------------------4----4--------------------|
A|-------------------4--6----------------------------------------------------|
e|---------------------------------------------------------------------------|


E|---------------------------------------------------------------------------|
B|---------------------------------------------------------------------------|
G|-----6h8--9--11--11/13--11-------------------------------------------------|
D|----------------------------8h9h11-----------------------------------------|
A|------------------------------------9--------------------------------------|
e|---------------------------------------------------------------------------|

Repete: 2ª Parte

  	     B    E  	  F#
Tentei te esquecer... não deu
	     B		E	      F#
Pensei que fosse mais forte que esse amor
	  B	E     F#
Ó minha paixão... sou teu
	      B	          E		F#
Por mais que eu queira disfarçar como estou
	G#m		     E	
O meu coração se nega a aceitar, 
         C#m	       F#            B  
passa o tempo não  esqueço de te amar.

        E               F#           B 
passa o tempo não me esqueço de te amar.
Suggest correction
Give kudos to tab author, rate the tab!
1 2 3 4 5
comments
print report bad tab
guest
You may want to rate the tab now too:
select rating
Wanna post a correction for this tab? Suggest correction