Oops, an error
Loading. Please wait.

Cielo Di Settembre chords

145 views 1 this week
no commentswrite comment
1 2 3 4 5
3 more votes to show rating
add to favorites
×
Save as Personal and add changes to this tab that will be seen only by you. Learn more ›
×
You can save this tab as Personal to edit and correct it or add notes. All changes will be seen only by you. Learn more »
launch autoscroll
font size
0
reset
transpose
0
reset
display chords
guitar tuner
edit
Autoscroll
slow
fast
+/-
esc
set tempo
stop
Author
Difficulty
Strumming
There is no strumming pattern for this song yet. and get +5 IQ
[Intro]
   C                             G
e|----------------------------------------------------------|
B|-----5-------------5---------------5--------------5-------|
G|-5h7---7-5-7----5h7---7-5-7----5h7---7-5-7----5h7---7-5-7-|
D|----------------------------------------------------------|
A|----------------------------------------------------------|
E|----------------------------------------------------------|

   Am                            F              G    
e|-----------------------------------------------------------------|
B|-----5-------------5---------------5--------------5h6p5----------|
G|-5h7---7-5-7----5h7---7-5-7----5h7---7-5-7----5h7-------7-5--7-5-|
D|-----------------------------------------------------------------|
A|-----------------------------------------------------------------|
E|-----------------------------------------------------------------|


[Verse 1]
C                     G
  Cielo si apre una ferita
                   Am
credevo già guarita
             E
ormai rimarginata
             F                 C
cielo da guardare che mi farai male
             G             F        G           C
cielo non lo sa mi condizionerà per un eternità


[Chorus]
C             G             Am
  cielo siamo qua soli io e te 
           F          G         C
vendimi la stella più bella che c'è 
             G                   Am
e portala da lei puoi farlo solo tu
                 F        G
lo sai non posso darle di più.


[Verse 2]
C                  G
cielo come un temporale
                Am
mi cambierai l'umore 
               E
se cambierai colore
              F                    C
se proverai dolore, e piangerai d'amore
G             F        G            C
cielo sai che c'è? che piangerò con te.


[Chorus]
C              G           Am
  come un anno fa una compagnia
               F           G      C
ricordo di una donna che è volata via
                  G                 Am
ma tu non te ne andrai almeno tu ci sei
            F         G       Am
adesso ti saluto è mattina oramai..


[Bridge]
                  E
ma il cielo cambierà
            F
cielo di settembre
            G
guarderà la gente, che va
               C
cielo che stai qua
                G
proprio sopra il mare
                Am
tu che potrai guardarla
 F            
abbracciala e dille 
       G                         Am
che il suo profumo l'ha lasciato qua


[Solo]
   C                             G
e|----------------------------------------------------------|
B|-----5-------------5---------------5--------------5-------|
G|-5h7---7-5-7----5h7---7-5-7----5h7---7-5-7----5h7---7-5-7-|
D|----------------------------------------------------------|
A|----------------------------------------------------------|
E|----------------------------------------------------------|

   Am                            F              G    
e|-----------------------------------------------------------------|
B|-----5-------------5---------------5--------------5h6p5----------|
G|-5h7---7-5-7----5h7---7-5-7----5h7---7-5-7----5h7-------7-5--7-5-|
D|-----------------------------------------------------------------|
A|-----------------------------------------------------------------|
E|-----------------------------------------------------------------|


[Chorus]
C               G               Am
  l'estate tornerà a farci compagnia
                 F         G     C
a riscaldarci il cuore con una magia
                 G                 Am
e tu mi abbraccierai, ridendo mi dirai
                  F         G       C
vorrei che questa notte non finisse mai
                G               Am
  l'estate tornerà a farci compagnia
                 F         G     C
a riscaldarci il cuore con una bugia
                 G                 Am
e tu mi abbraccierai, ridendo mi dirai
                  F         G       C...
vorrei che questa notte non finisse mai


************************************

| h  Hammer-on
| p  Pull-off

************************************

            
            
Suggest correction
Creating personal tab
Creating personal tab
You can edit any tab online and save it as your Personal.

You can edit, replace or remove any tab part or add personal notes – all changes will be seen only by you.

Personal tabs can be accessed anytime from any device, even offline.
Learn more »
Give kudos to tab author, rate the tab!
1 2 3 4 5
comments
print report bad tab
guest
You may want to rate the tab now too:
select rating
Wanna post a correction for this tab? Suggest correction