Oops, an error
Loading. Please wait.

Visa Vid Vindens Angar Ukulele Chords

649 views 1 this week
no commentswrite comment
1 2 3 4 5
3 more votes to show rating
add to favorites
launch autoscroll
font size
0
reset
transpose
0
reset
simplify chords
display chords
guitar tuner
Autoscroll
slow
fast
+/-
esc
set tempo
stop
Help us to improve Ultimate-Guitar.com Take our survey!
×
Enkel version som är trevlig att sjunga till. Spelas i standardstämning.

Ackord som används:

    E   Emaj7  C#m    A   Amaj7   B
e|--0--|--0--|--4--|--0--|--4--|--2--|
B|--0--|--0--|--5--|--2--|--2--|--4--|
G|--1--|--1--|--6--|--2--|--2--|--4--|
D|--2--|--1--|--6--|--2--|--2--|--4--|
A|--2--|--2--|--4--|--0--|--0--|--2--|
E|--0--|--0--|--4--|--0--|--0--|--2--|

maj7-ackorden är frivilliga men låter fint om gitarren är ensamt instrument.

INTRO: gitarren spelar lite mysigt fingerspel (egentligen bakom en melodi)

    E           Emaj7 C#m               A           B     E
e|-----------0--------------------------------------2-----0-----------------|
B|--------0--------------------5-----------------2--4-----0-----------------|
G|-----1----------(1)-------6--------1--------2-----4-----1-----------------|
D|--2-----------1--------6-----------------2--------4-----2-----------------|
A|--------------------4-----------2-----0-----------2-----2-----------------|
E|--------------------------------------------------------0-----------------|

           E         Emaj7   C#m
Det går en vind över vindens ängar, 
             A         Amaj7  B
det fladdrar till i en tyllgardin 
            E         Emaj7 C#m
Och jag ska skriva en sommarvisa 
            A          B   E
med sol och blomdoft i melodin 


          A             B
Jag ville sjunga om Katarina, 
              E                C#m
till träklangsflöjter och alcymbal 
            A                   B
men vindens toner blir sommarns sånger, 
         E                  B
jag bara lyssnar i björklövssal


           E         Emaj7   C#m
Det går en vind över vindens ängar, 
             A         Amaj7  B
det fladdrar till i en tyllgardin 
            E         Emaj7 C#m
Och jag ska skriva en sommarvisa 
            A          B   E
med sol och blomdoft i melodin 

BREAK: ungefär samma som introt - en fingerspelande gitarr bakom en melodi

    E           Emaj7 C#m               A           B     E (klinka på E-ackordet) 
e|-----------0--------------------------------------2-----0-----------------|
B|--------0--------------------5-----------------2--4-----0-----------------|
G|-----1----------(1)-------6--------1--------2-----4-----1-----------------|
D|--2-----------1--------6-----------------2--------4-----2-----------------|
A|--------------------4-----------2-----0-----------2-----2-----------------|
E|--------------------------------------------------------0-----------------|

    E (fortsätt klinka på E-ackordet till andra versen börjar, lyssna på låten för att höra hur)
e|--0-----------------|
B|--0-----------------|
G|--1-----------------|
D|--2-----------------|
A|--2-----------------|
E|--0-----------------|

           E        Emaj7 C#m
Det går en flicka i aspelunden, 
            A        Amaj7 B
jag har ett gulnat fotografi
         E           Emaj7    C#m
Med åren blev hon en dröm, en saga, 
         A         B    E
en ensam vandrares sympati


          A               B
Jag ville skriva en liten visa,
        E                   C#m
där ögonblick blir till evighet
             A                B
Men ord blir stumma och toner döva, 
           E                B
och visans tanke blir hemlighet


           E         Emaj7   C#m
Det går en vind över vindens ängar, 
             A         Amaj7  B
det fladdrar till i en tyllgardin 
            E         Emaj7 C#m
Och jag ska skriva en sommarvisa 
            A          B   E
med sol och blomdoft i melodin 

OUTRO: mysigt fingerspel igen

    E           Emaj7 C#m               A           B     E
e|-----------0--------------------------------------2-----0-----------------|
B|--------0--------------------5-----------------2--4-----0-----------------|
G|-----1----------(1)-------6--------1--------2-----4-----1-----------------|
D|--2-----------1--------6-----------------2--------4-----2-----------------|
A|--------------------4-----------2-----0-----------2-----2-----------------|
E|--------------------------------------------------------0-----------------|
Suggest correction
Give kudos to tab author, rate the tab!
1 2 3 4 5
comments
print report bad tab
guest
You may want to rate the tab now too:
select rating
Wanna post a correction for this tab? Suggest correction