Oops, an error
Loading. Please wait.

Big Eyes Tab

version 1
version 1

Whole song

21,067 views 30 this week
1 commentread comment
1 2 3 4 5
1 last vote to show rating
add to favorites
launch autoscroll
font size
0
reset
how to read this tab
guitar tuner
Autoscroll
slow
fast
+/-
esc
set tempo
stop
Help us to improve Ultimate-Guitar.com Take our survey!
×
Capo
1st fret
D1 = Dadd6 no3rd
A up2: 
e|--0------|
B|--4------|
G|--4------|
D|--4------|
A|---------|
E|---------|

[Intro] 
e|------------------------------------------------------------------|
B|--7/9-7/9/12------7/9--7/9-12-9-7-5-7--5/7/9---7-5-7-9-7-5-2-p0---|
G|------------------------------------------------------------------|
D|------------------------------------------------------------------|
A|-----------------------------------------------------------0------|
E|--0---------------------------------7----------7------------------|

e|--0-----0---------------------------------------------------------|
B|--0-----2p0-------------------------------------------------------|
G|--2-----2p0----1--------------------------------------------------|
D|--0-----2p0----2--------------------------------------------------|
A|---------------2--------------------------------------------------|
E|---------------0--------------------------------------------------|

   D1  | A |    E

[Verse]
Blackout the light
Maybe you’re tired fall
Or stone cold

You fumble and fight
With all the time you spend alone
 
e|----------------------------------------0--------------------------|
B|----------4-------------------------2---0--2p0---------------------|
G|----------4----------------------4--2---2--2p0---1-----------------|
D|--4/6-4-2-4-----------------4-6-----2---0--2p0---2-----------------|
A|-------------------------------------------------2-----------------|
E|-------------------------------------------------0-----------------|

         | B |                     | A | D*| A |  E 
 
[Chorus]
                 A      D1 (A up2)
Cause it’s only fair
                A       D1 (A up2)
It’s love and war
                A       D1
And darkness is all you’ll ever know
                        E
If I don’t love you more

(fill)
e|--------------------------------------0---------------------------|
B|--------------------------------------0---------------------------|
G|-----4------6-----------6/4-----------2p0----------------------1--|
D|---6------6---------------------------0------------------------2--|
A|---------------------------------------------------------------2--|
E|---------------------------------------------------------------0--|
 darkness is all you'll ever know, if I don't love you more


[Verse]
A keep in your cage
Withered by aging eyes and skin

You call this your home
A colorful dragging dried up drone

[Chorus]
Cause it’s only fair
It’s love and war
And darkness is all you’ll ever know
Oh darkness is all you’ll ever know
Darkness is all you’ll ever know
If I don’t love you more

E          B      A       E
Loveless sorrow kindly borrowed
The only thing my soul’s now hollow
Loveless sorrow kindly borrowed
The only thing my soul’s now hollow

[Chorus]
Cause it’s only fair
It’s love and war (ooh)
And darkness is all you’ll ever know
If I don’t love you more



************************************

| p  Pull-off
| /  Slide up

************************************
Suggest correction
Give kudos to tab author, rate the tab!
1 2 3 4 5
comments
print report bad tab
1 comment total.
0 reply
kalum.la.dougla 10 Jan 09, 2015 06:24 PM

Assistance in understanding this please? Are the line with numbers on them riffs? If so where can i learn to read/play that?

guest
You may want to rate the tab now too:
select rating
Wanna post a correction for this tab? Suggest correction