Oops, an error
Loading. Please wait.

Big Eyes Tab

version 2
version 2

Whole song

26,903 views 102 this week
no commentswrite comment
1 2 3 4 5
excellent!
x 19
add to favorites
launch autoscroll
font size
0
reset
how to read this tab
guitar tuner
Tab Pro tools
  • play this tab
  • loop segment
  • change instrument
  • show fretboard
  • metronome
×
Best way to learn
"Big Eyes"
Autoscroll
slow
fast
+/-
esc
set tempo
stop
Contributor
Difficulty
Tuning
Capo
intermediate
D A D G B E
3rd fret
Matt Corby - Big Eyes
Tab by Anthony Chmiel


DROP D TUNING, PLUS A CAPO ON THE 3RD FRET.
I cross checked this with some of his live footage, he definitely plays in Drop D with a 
capo on the 3rd unlike some of the other versions I've seen up.



Intro: (there are actually a few extra open low D's and A's in the recording 
but I like them a little more sparse)
e------------5-------------------5-------------------------------|
b-5/7---5h7------------7-5-7-------7---7/5p3---3h5---3h5/7-------|
g----------------------------------------------------------------|
d----------------------------------------------------------------|
a-----------------------------------------------0----------------|
D-0-----0----0-----0----------0----------------------------------|

e------------------------------------------------------------|
b-7/5-3-5----5/7-5-3---0-------------------------------(3)---|
g----------------------0----2---0----0-----------2-----(2)---|
d----------------------0----0---2----2h4-2--0----0-----(0)---|
a-0-------0-----------------0--5----0------------0-----(0)---|
D------------------------------------------------0-----(0)---|
                                                     (descend down D again here)


Verse 1 - ad-libbed every time with strumming
e-------------------------------------------|
b----------2----------------------------3---|
g----------0--------------2-------------2---| x2
d-2/4-2-0--2----------2-4-----(0-0-0-0)-0---|
a----------0-------------------2-4-5-7--0---|
D------------------------------5-5-5-5--0---|

Chorus 1 - each time is ad-libbed a bit differently
e-------------------------------------|
b-------------------------------3-----|
g-----------(0-0-0-0)-----------2-----|
d-(0-0-0-0)--2-4-2-2-(0-0-0-0)--0-----|
a--2-4-5-7---0-0-0-0--2-4-5-7---0-----|
D--5-5-5-5---2-2-2-2--5-5-5-5---0-----|
Chorus 2 you repeat the first time progressions a second time before going to the D chord.

Verse 2
e-------------0-----------------------------|
b----------2--2-------------------------3---|
g-0---0-0--0--------------2-------------2---|
d-2h4-2-0--2----------2-4-----(0-0-0-0)-0---|
a----------0-------------------2-4-5-7--0---|
D------------------------------5-5-5-5--0---|

e-------------0--------------------------------|
b----------2--2----------------------------3---|
g-0---0-0--0------------2------------------2---|
d-2h4-2-0--2--------2h4---3/2-0--(0-0-0-0)-0---|
a----------0----------------------2-4-5-7--0---|
D---------------------------------5-5-5-5--0---|


Middle Section - strummed. The 1st fret on the second chord is added halfway through 
that chord
e--------------------------|
b--3---0-1---(0)--(0)------|
g--2---0-0----0----0-------|
d--0---2-2----0----2-------| x4
a--0---0-0----2----0-------|
D--0----------5----2-------|
Last time play the last chord for twice as long


Outro
e------------5-------------------5-------------------------------|
b-5/7---5h7------------7-5-7-------7---7/5p3---3h5---3h5/7-------|
g----------------------------------------------------------------|
d----------------------------------------------------------------|
a-----------------------------------------------0----------------|
D-0-----0----0-----0----------0----------------------------------|


e---------------------------------------------------------|
b-7/5-3-5----5/7-5-3---0-------------------------------3--|
g----------------------0----2---0----0---0-------------2--|
d----------------------0----0---4----2---0-------------0--|
a-0-------0-----------------0---5--0---0----0h2-0--0---0--|
D--------------------------------------------------0---0--|
comments
print report bad tab
I want to post or [tab]
guest
You may want to rate the tab now too:
select rating
Please do not post tabs as comments. Select "correction" instead!