Oops, an error
Loading. Please wait.

Brother Acoustic Tab

version 1
version 1

Whole song

40,235 views 174 this week
no commentswrite comment
1 2 3 4 5
accurate
x 3
add to favorites
launch autoscroll
font size
0
reset
how to read this tab
guitar tuner
Tab Pro tools
  • play this tab
  • loop segment
  • change instrument
  • show fretboard
  • metronome
Autoscroll
slow
fast
+/-
esc
set tempo
stop
Some of it was from jimmylynch and jacobhughes  - attempting to perfect it more, still 
not 100% accurate - just added an intro.

Such a hauntingly beautiful song on acoustic.  I watched a couple of his live videos..  
Hope this is getting closer to perfect.


Capo 2nd, Standard Tuning

Base on the chords:

Csus  x 3 5 0 5 0
Gsus  x 10 12 0 12 0
Dsus  x 5 7 0 7 0
Bsus  x 2 4 0 3 0
Em    0 2 2 0 0 0
D/F#  2 x 0 2 3 0
G     3 2 0 0 0 0
D     - - 0 2 3 0
Asus  x 0 2 2 0 0
Dsus  x 5 7 0 7 0
Esus  0 7 9 0 8 0


Intro

Not really accurate, he kinda does it more... freely if you know what I mean (I'm sure 
it's not random but can't quite work it out)

    Csus                           Gsus     Dsus                  Bsus
E|-----------------------------------------------------------------------|
B|-5-------5------5-------5------------12----7--------7--7-----7----3----|
G|-----0-------0------0-------0-------0-----------0----------0------0----|
D|---5-------3------5-------3--------12---------7----------7--------4----|
A|-3-----3--------3-----3-----------10-------5------7----5----------2----|
E|-----------------------------------------------------------------------|

E|--------------------------------||
B|-5-------5------5-------5-------||
G|-----0-------0------0-------0---||
D|---5-------3------5-------3-----|| (x2)
A|-3-----3--------4---------------||
E|-----------------------3------2-||



..sleep now under my skin, make..
E|------------------------------||
B|-5-------5------5-------5-----||
G|-----0-------0------0-------0-||
D|---5-------3------5-------3---|| (x2)
A|-3-----3--------3-----3-------||
E|------------------------------||


..sure                 you             try to..
E|------------------------------------|----------------||
B|-12---------12--------7-------7-----|-5-------5------||
G|-------0----------10------0-------0-|------0------0--||
D|----12--------12--------7-------7---|----5------5----||
A|-10------10-----------5-----5-------|-3-----3--------||
E|------------------------------------|----------------||



..conjure the wind and...
E|------------------------------||
B|-5-------5------5-------5-----||
G|-----0-------0------0-------0-||
D|---5-------3------5-------3---||
A|-3-----3--------3-----3-------||
E|------------------------------||


..ease                 my             mind..
E|-----------------------------------|----------------||
B|-12---------12--------7-------7----|-5-------5------||
G|-------0----------10------0------0-|------0------0--||
D|----12--------12--------7------7---|----5------5----||
A|-10------10-----------5-----5------|-3-----3--------||
E|-----------------------------------|----------------||


E|------------------------------|
B|-5----5-------3-5-------------|
G|--------------0-0-------------|
D|---5--------------------------|
A|-3------------2-3-------------|
E|------------------------------|





..oh oh oh, oh oh oh, ooooh. oh oh ..
E|-X--------X--------X-------0--0---||
B|-0--------3--------X-------3--5---||
G|-0--------2--------4-------0--0---||
D|-2--------0--------5-------4--5---||
A|-2--------0--------5-------2--3---||
E|-0--------0--------3-------X--X---||


E|--------------------------------||
B|-5-------5------5-------5-------||
G|-----0-------0------0-------0---||
D|---5-------3------5-------3-----||
A|-3-----3--------4---------------||
E|-----------------------3------2-||




..somebody call out to your brother,
he's callin' out your name..                  ..oh oh  oh
E|-----|                                  E|-0~----0~--0~-|
B|-5~--|                                  B|-0~----0~--0~-|
G|-0~--|                                  G|-4~----2~--0~-|
D|-5~--|                                  D|-5~----2~--2~-|
A|-3~--|                                  A|-5~----0~--2~-|
E|-X---|                                  E|-3~----0~--0~-|




..hiding under the covers,
with no one else to blame..                   ..oh oh  oh
E|-----|                                  E|-0~----0~--0~-|
B|-5~--|                                  B|-0~----0~--0~-|
G|-0~--|                                  G|-4~----2~--0~-|
D|-5~--|                                  D|-5~----2~--2~-|
A|-3~--|                                  A|-5~----0~--2~-|
E|-X---|                                  E|-3~----0~--0~-|



..you couldn't help out your own neighbour,
you couldn't tell it to his face
                               you were fucked up by the blame..
E|-----|                                  E|-0~----0~--0~-0-0-0-0-0-|
B|-5~--|                                  B|-0~----0~--0~-5-5-5-5-5-|
G|-0~--|                                  G|-4~----2~--0~-0-0-0-0-0-|
D|-5~--|                                  D|-5~----2~--2~-5-5-5-5-5-|
A|-3~--|                                  A|-5~----0~--2~-3-3-3-3-3-|
E|-X---|                                  E|-3~----0~--0~-X-X-X-X-X-|



    ..you cower in the corner..   ..confide in your father..
E|---------------------------------------------------------------|
B|---------------------------3-5----------------------------7-8--|
G|---------------------------0-0----------------------------0-0--|
D|---------------------------4-5----------------------------7-9--|
A|---------------------------2-3----------------------------5-7--|
E|---------------------------------------------------------------|

..let it out and say..
E|-----------------------------------------|
B|-------12~--3--5------5-----5-------5----|
G|-------0~---0------0-----0------0------0-|
D|-------12~--4----5-----5------5------5---|
A|-------10~--2--3----3-------3-----3------|
E|-----------------------------------------|

             ..let it pass   away
E|-----------------------------------------------------------------|
B|-5-------5------5-------5------8~--7~--12-3-5~-------------------|
G|-----0-------0------0-------0--0~--0~--0--4-0~-------------------|
D|---5-------3------5-------3----9~--7~--12-0-5~-------------------|
A|-3-----3--------3-----3--------7~--5~--10-2-3~-------------------|
E|-----------------------------------------------------------------|
comments
We did not receive enough feedback on this tab! Please rate:
print report bad tab
1 2 3 4 5
I want to post or [tab]
guest
You may want to rate the tab now too:
select rating
Please do not post tabs as comments. Select "correction" instead!