Oops, an error
Loading. Please wait.

Brother Tab

version 2
version 2

Acoustic

Whole song

Interactive

11,855 views 33 this week
no commentswrite comment
1 2 3 4 5
x 5
add to favorites
launch autoscroll
font size
0
reset
how to read this tab
guitar tuner
Autoscroll
slow
fast
+/-
esc
set tempo
stop
Help us to improve Ultimate-Guitar.com Take our survey!
×
Author
Capo
2nd fret
Matt Corby - Brother acoustic
Standard tuning
Capo 2 fret.

Intro:                        1.
-0-----0-----0-----0----0----|-------------|
-5-----5-----5-----5----5----|--5~---------|
-0-----0-----0-----0----0----|--0~---------|
-5-----5-----5-----5----5----|--5~---------|
-------------------2----3----|--3--2-------|
-0-----2-----3---------------|--------3--2-|
ooh,  ooh,  ooh,  oooooh
                              2.
-0-----0-----0-----0----0----|--0---0--0---|
-5-----5-----5-----5----5----|--5---3--7---|
-0-----0-----0-----0----0----|--0---0--0---|
-5-----5-----5-----5----5----|--5---0--7---|
-------------------2----3----|--3---2--5---|
-0-----2-----3---------------|-------------|
ooh,  ooh,  ooh,  oooooh

verse:
-0--------------------------0-----0-----|
-5--------------------------12----7-----|
-0--------------------------0-----0-----|
-5--------------------------12----7-----|
-3--------------------------10----5-----|
----------------------------------------|
sleep now under my skin make sure you'll

-0--------------------------0-----0-------0-----0-0-|
-5--------------------------12----7-------5-----3-5-|
-0--------------------------0-----0-------0-----0-0-|
-5--------------------------12----7-------5-----0-5-|
-3--------------------------10----5-------3-----2-3-|
----------------------------------------------------|
try to conjure the wind and ease my mind


Intro/bridge:
-0-----0-----0-----0----0----|-------------|
-5-----5-----5-----5----5----|--5~---------|
-0-----0-----0-----0----0----|--0~---------|
-5-----5-----5-----5----5----|--5~---------|
-------------------2----3----|--3--2-------|
-0-----2-----3---------------|--------3--2-|
ooh,  ooh,  ooh,  oooooh

-0-----0-----0-----0----0----|--0---0--0---|
-5-----5-----5-----5----5----|--5---3--7---|
-0-----0-----0-----0----0----|--0---0--0---|
-5-----5-----5-----5----5----|--5---0--7---|
-------------------2----3----|--3---2--5---|
-0-----2-----3---------------|-------------|
ooh,  ooh,  ooh,  oooooh

Chorus:
-0~----------------------------------------------|
-5~-----------------------------------0~--1~-----|
-0~-----------------------------------0~--0~--0~-|
-5~-----------------------------------0~--2~--2~-|
-3~---------------------------------------0~--2~-|
--------------------------------------3~------0~-|
Somebody call out to your brother,   ooh ooh ooh
he's callin' out your name

-------------------------------------------------|
--------------------------------------0~--1~-----|
--------------------------------------0~--0~--0~-|
--------------------------------------0~--2~--2~-|
------------------------------------------0~--2~-|
--------------------------------------3~------0~-|
Hiding under the covers,             ooh ooh ooh
with no one else to blame

-----------------------------------------------------------|
-----------------------------------------------------------|
---------------------2----------------------------------4--|
---------------------0----------------------------------0--|
---------------------x----------------------------------x--|
---------------------2----------------------------------3--|
you couldn't
help out your own neighbor, you couldn't tell it to his face

------------------------------------|
---------------------------3----5---|
-----------5---------------0----0---|
-----------0---------------0----5---|
-----------x---------------2----3---|
-----------5------------------------|
you were fucked up by the blame

------------------------------------------------------|
------------------------3-5-----------------------7-8-|
------------------------0-0-----------------------0-0-|
------------------------0-5-----------------------7-9-|
------------------------2-3-----------------------5-7-|
------------------------------------------------------|
you cower in the corner     confide in your father

                               the notes in () should be played a bit louder
-------------------------------------------------------------------|
--------12--3---5-------------7--------------(8)--(7)-(12)(3)(5)---|
--------0---0---0-------------0---------------0----0---0---0--0----|
--------12--0---5-------------7---------------9----7---12--0--5----|
--------10--2---3-------------5---------------7----5---10--2--3----|
-------------------------------------------------------------------|
Let it out and say              let it pass away

verse:
-0--------------------------0-----0-----|
-5--------------------------12----7-----|
-0--------------------------0-----0-----|
-5--------------------------12----7-----|
-3--------------------------10----5-----|
----------------------------------------|
sleep now under my skin make sure you'll

-0--------------------------0-----0-------0-----0-0-|
-5--------------------------12----7-------5-----3-5-|
-0--------------------------0-----0-------0-----0-0-|
-5--------------------------12----7-------5-----0-5-|
-3--------------------------10----5-------3-----2-3-|
----------------------------------------------------|
try to conjure the wind and ease my mind           and i said

Intro/bridge:
-0-----0-----0-----0----0----|-------------|
-5-----5-----5-----5----5----|--5~---------|
-0-----0-----0-----0----0----|--0~---------|
-5-----5-----5-----5----5----|--5~---------|
-------------------2----3----|--3--2-------|
-0-----2-----3---------------|--------3--2-|
ooh,  ooh,  ooh,  oooooh

-0-----0-----0-----0----0----|--0---0--0---|
-5-----5-----5-----5----5----|--5---3--7---|
-0-----0-----0-----0----0----|--0---0--0---|
-5-----5-----5-----5----5----|--5---0--7---|
-------------------2----3----|--3---2--5---|
-0-----2-----3---------------|-------------|
ooh,  ooh,  ooh,  oooooh

Chorus:
-0~----------------------------------------------|
-5~-----------------------------------0~--1~-----|
-0~-----------------------------------0~--0~--0~-|
-5~-----------------------------------0~--2~--2~-|
-3~---------------------------------------0~--2~-|
--------------------------------------3~------0~-|
Somebody call out to your brother,   ooh ooh ooh
he's callin' out your name

-------------------------------------------------|
--------------------------------------0~--1~-----|
--------------------------------------0~--0~--0~-|
--------------------------------------0~--2~--2~-|
------------------------------------------0~--2~-|
--------------------------------------3~------0~-|
Hiding under the covers,             ooh ooh ooh
with no one else to blame

-----------------------------------------------------------|
-----------------------------------------------------------|
---------------------2----------------------------------4--|
---------------------0----------------------------------0--|
---------------------x----------------------------------x--|
---------------------2----------------------------------3--|
you couldn't
help out your own neighbor, you couldn't tell it to his face

------------------------------------|
---------------------------3----5---|
-----------5---------------0----0---|
-----------0---------------0----5---|
-----------x---------------2----3---|
-----------5------------------------|
you were fucked up by the blame


------------------------------------------------------|
------------------------3-5-----------------------7-8-|
------------------------0-0-----------------------0-0-|
------------------------0-5-----------------------7-9-|
------------------------2-3-----------------------5-7-|
------------------------------------------------------|
you cower in the corner     confide in your father

---------------------|
--------12--3---5----|
--------0---0---0----|
--------12--0---5----|
--------10--2---3----|
---------------------|
Let it out and say

------------------------------------------------------|
------------------------3-5-----------------------7-8-|
------------------------0-0-----------------------0-0-|
------------------------0-5-----------------------7-9-|
------------------------2-3-----------------------5-7-|
------------------------------------------------------|
you cower in the corner     confide in your father

-------------------------------------------------------------------|
--------12--3---5-------------7---------------8----7---12--3--5----|
--------0---0---0-------------0---------------0----0---0---0--0----|
--------12--0---5-------------7---------------9----7---12--0--5----|
--------10--2---3-------------5---------------7----5---10--2--3----|
-------------------------------------------------------------------|
Let it out and say              let it pass away

--------------------------------------|
-7---------------8----7---12--3--5----|
-0---------------0----0---0---0--0----|
-7---------------9----7---12--0--5----|
-5---------------7----5---10--2--3----|
--------------------------------------|
  let it break your day

--0--------------------0--------------------------------------|
--5--------------------3--------------------------------2-----|
--0--------------------0--------------------------------0-----|
--5--------------------0--------------------------------x-----|
--3--------------------2--------------------------------1-----|
--------------------------------------------------------------|
wait here pull                    acknowledge that you weren't
yourself  out of this state here,


--0----------------------------------------0---0---0---0--0--|
--1----------------------------------------8---7---12--3--5--|
--0----------------------------------------0---0---0---0--0--|
--2----------------------------------------9---7---12--0--5--|
--0----------------------------------------7---5---10--2--3--|
-------------------------------------------------------------|
a fake here, from there on you might just grow

-----------------------------------------------------------------------|
--5------------------------7----------------------------8---------12---|
--0------------------------0----------------------------0---------0----|
--5------------------------7----------------------------9---------12---|
--3------------------------5----------------------------7---------10---|
-----------------------------------------------------------------------|
Somebody call out to your brother he's callin' out your name  oooh

------------------------------------------------------------|
--5-----------------7------------------------8---------12---|
--0-----------------0------------------------0---------0----|
--5-----------------7------------------------9---------12---|
--3-----------------5------------------------7---------10---|
------------------------------------------------------------|
hiding under the covers with no on else to blame   oooh

----------------------------------------------------------------------|
--5-------------------7--------------------------8---------12---------|
--0-------------------0--------------------------0---------0----------|
--5-------------------7--------------------------9---------12---------|
--3-------------------5--------------------------7---------10---------|
----------------------------------------------------------------------|
you couldn't    own brother    you couldn't   his face   you were fucked
help out your                  tell it to                up by the blame


repeat the last part but add
-------|
-3--5--|
-0--0--|
-0--5--|
-2--3--|
-------|

before each line.
Suggest correction
comments
print report bad tab
guest
You may want to rate the tab now too:
select rating
Wanna post a correction for this tab? Suggest correction