Oops, an error
Loading. Please wait.

Brother Tab

version 1
version 1

Whole song

Interactive

20,841 views 3 this week
no commentswrite comment
1 2 3 4 5
worth learning
x 4
add to favorites
launch autoscroll
font size
0
reset
how to read this tab
guitar tuner
Autoscroll
slow
fast
+/-
esc
set tempo
stop
Help us to improve Ultimate-Guitar.com Take our survey!
×
Capo
2nd fret
ok say i got this far by watching youtoube as there arent really any tabs at the moment.
I am up to the "So you call out to your brother..." part and then im not exactly sure 
what happens after that.

standard tuning.
capo on 2nd fret.

"oooooh oooh ooooo oh oh"
e|-----------------|-----------------|-----------------|-------------------|
B|--------5--------|--------5--------|--------5--------|--------5----------|
G|------------0----|------------0----|------------0----|------------0------|
D|-----------------|-----------------|-----------------|-------------------|
A|-----------------|-----------------|-----------------|--2---2---2---2----|
E|--0---0---0---0--|--2---2---2---2--|--3---3---3---3--|-------------------|

e|-----------------|-----------------|-----------------|-------------------|
B|--5---------5----|--5---------5----|--5---------5----|--5----------------|
G|--------0--------|--------0--------|--------0--------|-------------------|
D|-----------------|-----------------|-----------------|-------------------|
A|--3---3---3---3--|--3---3---3---3--|--3---3---3---3--|--3---2p0----------|
E|-----------------|-----------------|-----------------|-----------3p0-2p0-|

e|-----------------|-----------------|-----------------|-------------------|
B|--------5--------|--------5--------|--------5--------|--------5----------|
G|------------0----|------------0----|------------0----|------------0------|
D|-----------------|-----------------|-----------------|-------------------|
A|-----------------|-----------------|-----------------|--2---2---2---2----|
E|--0---0---0---0--|--2---2---2---2--|--3---3---3---3--|-------------------|

e|-----------------|-----------------|-----------------|-------------------|
B|--5---------5----|--5\3--------3---|--7---------7----|--7---------7------|
G|--------0--------|---------0-------|--------0--------|--------0----------|
D|-----------------|-----------------|-----------------|-------------------|
A|--3---3---3---3--|--3\2--2---2---2-|--5---5---5---5--|--5---5---5---5----|
E|-----------------|-----------------|-----------------|-------------------|

e|-----------------|-----------------|-----------------|-------------------|
B|--7---------7----|--7---------7----|--5---------5----|--5---------5------|
G|--------0--------|--------0--------|--------0--------|--------0----------|
D|-----------------|-----------------|-----------------|-------------------|
A|--5---5---5---5--|--5---5---5---5--|--3---3---3---3--|--3---3---3---3----|
E|-----------------|-----------------|-----------------|-------------------|

e|-----------------|-----------------|-----------------|-------------------|
B|--5---------5----|--5---------5----|--12--------12---|--7---------7------|
G|--------0--------|--------0--------|--------0--------|--------0----------|
D|-----------------|-----------------|-----------------|-------------------|
A|--3---3---3---3--|--3---3---3---3--|--10--10--10--10-|--5---5---5---5----|
E|-----------------|-----------------|-----------------|-------------------|

e|-----------------|-----------------|-----------------|-------------------|
B|--5---------5----|--5---------5----|--5---------5----|--5---------5------|
G|--------0--------|--------0--------|--------0--------|--------0----------|
D|-----------------|-----------------|-----------------|-------------------|
A|--3---3---3---3--|--3---3---3---3--|--3---3---3---3--|--3---3---3---3----|
E|-----------------|-----------------|-----------------|-------------------|

e|-----------------|-----------------|-----------------|-------------------|
B|--12--------12---|--7---------7----|--5---------5----|--5\3---------3----|
G|--------0--------|--------0--------|--------0--------|----------0--------|
D|-----------------|-----------------|-----------------|-------------------|
A|--10--10--10--10-|--5---5---5---5--|--3---3---3---3--|--3/2---2---2---2--|
E|-----------------|-----------------|-----------------|-------------------|

back to start riff

e|-----------------|-----------------|-----------------|-------------------|
B|--------5--------|--------5--------|--------5--------|--------5----------|
G|------------0----|------------0----|------------0----|------------0------|
D|-----------------|-----------------|-----------------|-------------------|
A|-----------------|-----------------|-----------------|--2---2---2---2----|
E|--0---0---0---0--|--2---2---2---2--|--3---3---3---3--|-------------------|

e|-----------------|-----------------|-----------------|-------------------|
B|--5---------5----|--5---------5----|--5---------5----|--5----------------|
G|--------0--------|--------0--------|--------0--------|-------------------|
D|-----------------|-----------------|-----------------|-------------------|
A|--3---3---3---3--|--3---3---3---3--|--3---3---3---3--|--3---2p0----------|
E|-----------------|-----------------|-----------------|-----------3p0-2p0-|

e|-----------------|-----------------|-----------------|-------------------|
B|--------5--------|--------5--------|--------5--------|--------5----------|
G|------------0----|------------0----|------------0----|------------0------|
D|-----------------|-----------------|-----------------|-------------------|
A|-----------------|-----------------|-----------------|--2---2---2---2----|
E|--0---0---0---0--|--2---2---2---2--|--3---3---3---3--|-------------------|

e|-----------------|-----------------|-----------------|--0----------------|
B|--5---------5----|--5---------5----|--5---------0----|--5----------------|
G|--------0--------|--------0--------|--------0--------|--0----------------|
D|-----------------|-----------------|-----------------|--5----------------|
A|--3---3---3---3--|--3---3---3---3--|--3---3---3---3--|--3----------------|
E|-----------------|-----------------|-----------------|-------------------|

Somebody call out to your brother... hes calling out your name...

e|------3----------|-----------------|-----------------|------------------|x2
B|------0---2------|-----------------|-----------------|------------------|
G|------0---2------|-----------------|-----------------|------------------|
D|------0-------2--|-----------------|-----------------|------------------|
A|------2-------2--|-----------------|-----------------|------------------|
E|------3----------|-----------------|-----------------|------------------|

that's as far as i have gotten, if someone could add the rest or clean this up (this is 
my first time writing a tab) go for it!
Kyle.
comments
print report bad tab
I want to post or [tab]
guest
You may want to rate the tab now too:
select rating
Please do not post tabs as comments. Select "correction" instead!