Oops, an error
Loading. Please wait.

Brother Tab

version 3
version 3

Whole song

Interactive

5,039 views 15 this week
3 commentsread comments
1 2 3 4 5
accurate
x 4
add to favorites
launch autoscroll
font size
0
reset
how to read this tab
guitar tuner
Tab Pro tools
  • play this tab
  • loop segment
  • change instrument
  • show fretboard
  • metronome
×
Best way to learn
"Brother"
Autoscroll
slow
fast
+/-
esc
set tempo
stop
Contributor
Capo
2nd fret
Brother - Matt Corby

Tabbed by: Zlash
E-mail: sliderheerst@gmail.com

Tuning: Standard

Capo 2nd fret

Note: This tab is largely based on his live/acoustic/unplugged versions, rather than the
actual album version, with more fingerpicking applied than if you would play with a
full band (like the studio version), but it's basically the same arrangement.


Intro

E|-----------------|
B|-----------------|
G|-----------------|
D|---5---5---5---5-|
A|-3---2-----------|
E|---------3---2---|

/Ooh ooh ooh oh oh.../

E|---------------------------------------------------------------------------|
B|-------5--------------5--------------5--------------5--------------5-------|
G|---------0---0----------0---0----------0---0----------0---0----------0---0-|
D|---5-------5------5-------5------5-------5------5-------5------5-------5---|
A|----------------------------------------------2---2----------3---5---------|
E|-0---0----------2---2----------3---3---------------------------------------|

e|-----0------------0-------|------------------------------|
B|-5------------5-----------|------------------------------|
G|-------0---0--------0---0-|------------------------------|
D|---5-----5------5-----5---|---5---5---5---5--------------|
A|-3------------3-----------|-3---2------------------------|
E|--------------------------|---------3---2----------------|



/Ooh ooh ooh oh oh…/
E|---------------------------------------------------------------------------|
B|-------5--------------5--------------5--------------5--------------5-------|
G|---------0---0----------0---0----------0---0----------0---0----------0---0-|
D|---5-------5------5-------5------5-------5------5-------5------5-------5---|
A|----------------------------------------------2---2----------3---5---------|
E|-0---0----------2---2----------3---3---------------------------------------|

e|-----0------------0------------0-------------------------------------------|
B|-5------------3------------7-----------7-----------------------------------|
G|-------0---0--------0---0--------0---0-------------------------------------|
D|---5-----5------4-----4------7-----7---------------------------------------|
A|-3------------2------------5-----------5-----------------------------------|
E|---------------------------------------------------------------------------|


Verse 1

/Sleep now under my skin/
E|-----0------------0-----------|
B|-5------------5---------------|
G|-------0---0--------0---0-----|
D|---5-----5------5-----5-------| (x2)
A|-3------------3---------------|
E|------------------------------|

/Make sure you'll/

E|-------0-------------0--------------|
B|-12--------------7------------------|
G|---------0----0--------0---0--------|
D|----12-----12------7-----7----------|
A|-10--------------5------------------|
E|------------------------------------|


/try to conjure the wind/
E|-----0------------0-----------|
B|-5------------5---------------|
G|-------0---0--------0---0-----|
D|---5-----5------5-----5-------| (x2)
A|-3------------3---------------|
E|------------------------------|

/And ease my mind/
E|-------0-------------0--------------|-----0------------0-----------|
B|-12--------------7------------------|-5------------5---------------|
G|---------0----0--------0---0--------|-------0---0--------0---0-----|
D|----12-----12------7-----7----------|---5-----5------5-----5-------|
A|-10--------------5------------------|-3------------3---------------|
E|------------------------------------|------------------------------|


E|------0----------------------------------|
B|-5------------3-5------------------------|
G|--------------0-0------------------------|
D|---5-------------------------------------|
A|-3------------2-3------------------------|
E|-----------------------------------------|

E|-----------------|
B|-----------------|
G|-----------------|
D|---5---5---5---5-|
A|-3---2-----------|
E|---------3---2---|


Chorus 1

/Ooh ooh ooh oh oh.../

E|---------------------------------------------------------------------------|
B|-------5--------------5--------------5--------------5--------------5-------|
G|---------0---0----------0---0----------0---0----------0---0----------0---0-|
D|---5-------5------5-------5------5-------5------5-------5------5-------5---|
A|----------------------------------------------2---2----------3---5---------|
E|-0---0----------2---2----------3---3---------------------------------------|

e|-----0------------0-------|------------------------------|
B|-5------------5-----------|------------------------------|
G|-------0---0--------0---0-|------------------------------|
D|---5-----5------5-----5---|---5---5---5---5--------------|
A|-3------------3-----------|-3---2------------------------|
E|--------------------------|---------3---2----------------|

/Ooh ooh ooh oh oh.../

E|---------------------------------------------------------------------------|
B|-------5--------------5--------------5--------------5--------------5-------|
G|---------0---0----------0---0----------0---0----------0---0----------0---0-|
D|---5-------5------5-------5------5-------5------5-------5------5-------5---|
A|----------------------------------------------2---2----------3---5---------|
E|-0---0----------2---2----------3---3---------------------------------------|

e|-----0------------0-------|------------|
B|-5------------5-----------|------------|
G|-------0---0--------0---0-|------------|
D|---5-----5------5-----5---|------------|
A|-3------------3-----------|------------|
E|--------------------------|------------|


/Somebody call out to your brother
He's calling out your name/                    /Ooh ooh ooh/
E|-----|                                  E|--------------|
B|-5---|                                  B|------ 1------|
G|-0---|                                  G|-0-----2---0--|
D|-----|                                  D|-0-----2---2--|
A|-3---|                                  A|-2-----0---2--|
E|-----|                                  E|-3------------|



/Hiding under the covers

With no one else to blame/                     /Ooh ooh ooh/
E|-----|                                  E|--------------|
B|-5---|                                  B|------ 1------|
G|-0---|                                  G|-0-----2---0--|
D|-----|                                  D|-0-----2---2--|
A|-3---|                                  A|-2-----0---2--|
E|-----|                                  E|-3------------|



/You couldn't help out your own neighbour
E|-----------------------------------------|
B|-----------------------------------------|
G|-----------------------------------------|
D|-------------------------------------0---|
A|-------------------------------------0---|
E|-------------------------------------2---|

You couldn't tell it to his face/


      /You were fucked up by the blame/
e|---------------------------------------------------------------------------|
B|-----1---3---5-------------------------------------------------------------|
G|-0---2---4---0-------------------------------------------------------------|
D|-2---2---4-----------------------------------------------------------------|
A|-2---0---2---3-------------------------------------------------------------|
E|---------------------------------------------------------------------------|


    /You cower in the corner/        /Confide in your father/
E|---------------------------------------------------------------|
B|-5-------------------------3-5----------------------------7-8--|
G|-0-------------------------0-0----------------------------0-0--|
D|-5-------------------------4-5----------------------------7-9--|
A|-3-------------------------2-3----------------------------5-7--|
E|---------------------------------------------------------------|

 /Let it out and say/
E|--------------------0------------0-----------------------------------|
B|-------12---3---5------------5---------------------------------------|
G|--------0---0---------0---0--------0---0-----------------------------|
D|-------12---4-----5-----5------5-----5-------------------------------|
A|-------10---2---3------------3---------------------------------------|
E|---------------------------------------------------------------------|

          ..let it pass   away
E|-----0------------0------------0------------0---------------------|
B|-7------------7------------8------------7-------------12---3---7--|
G|-------0---0--------0---0--------0---0--------0---0----0---0---0--|
D|---7-----7------7-----7------9-----9------7-----7-----12---4---7--|
A|-5------------5------------7------------5-------------10---2---5--|
E|------------------------------------------------------------------|

Verse 2

/Sleep now under my skin/
E|-----0------------0-----------|
B|-5------------5---------------|
G|-------0---0--------0---0-----|
D|---5-----5------5-----5-------| (x2)
A|-3------------3---------------|
E|------------------------------|

/Make sure you'll/

E|-------0-------------0--------------|
B|-12--------------7------------------|
G|---------0----0--------0---0--------|
D|----12-----12------7-----7----------|
A|-10--------------5------------------|
E|------------------------------------|


/try to conjure the wind/
E|-----0------------0-----------|
B|-5------------5---------------|
G|-------0---0--------0---0-----|
D|---5-----5------5-----5-------| (x2)
A|-3------------3---------------|
E|------------------------------|

/And ease my mind/
E|-------0-------------0--------------|-----0------------0-----------|
B|-12--------------7------------------|-5------------5---------------|
G|---------0----0--------0---0--------|-------0---0--------0---0-----|
D|----12-----12------7-----7----------|---5-----5------5-----5-------|
A|-10--------------5------------------|-3------------3---------------|
E|------------------------------------|------------------------------|


E|------0----------------------------------|
B|-5------------3-5------------------------|
G|--------------0-0------------------------|
D|---5-------------------------------------|
A|-3------------2-3------------------------|
E|-----------------------------------------|

E|-----------------|
B|-----------------|
G|-----------------|
D|---5---5---5---5-|
A|-3---2-----------|
E|---------3---2---|


Chorus 2

/Ooh ooh ooh oh oh.../

E|---------------------------------------------------------------------------|
B|-------5--------------5--------------5--------------5--------------5-------|
G|---------0---0----------0---0----------0---0----------0---0----------0---0-|
D|---5-------5------5-------5------5-------5------5-------5------5-------5---|
A|----------------------------------------------2---2----------3---5---------|
E|-0---0----------2---2----------3---3---------------------------------------|

e|-----0------------0-------|------------------------------|
B|-5------------5-----------|------------------------------|
G|-------0---0--------0---0-|------------------------------|
D|---5-----5------5-----5---|---5---5---5---5--------------|
A|-3------------3-----------|-3---2------------------------|
E|--------------------------|---------3---2----------------|

/Ooh ooh ooh oh oh.../

E|---------------------------------------------------------------------------|
B|-------5--------------5--------------5--------------5--------------5-------|
G|---------0---0----------0---0----------0---0----------0---0----------0---0-|
D|---5-------5------5-------5------5-------5------5-------5------5-------5---|
A|----------------------------------------------2---2----------3---5---------|
E|-0---0----------2---2----------3---3---------------------------------------|

e|-----0------------0-------|------------|
B|-5------------5-----------|------------|
G|-------0---0--------0---0-|------------|
D|---5-----5------5-----5---|------------|
A|-3------------3-----------|------------|
E|--------------------------|------------|


/Somebody call out to your brother
He's calling out your name/                    /Ooh ooh ooh/
E|-----|                                  E|--------------|
B|-5---|                                  B|------ 1------|
G|-0---|                                  G|-0-----2---0--|
D|-----|                                  D|-0-----2---2--|
A|-3---|                                  A|-2-----0---2--|
E|-----|                                  E|-3------------|



/Hiding under the covers

With no one else to blame/                     /Ooh ooh ooh/
E|-----|                                  E|--------------|
B|-5---|                                  B|------ 1------|
G|-0---|                                  G|-0-----2---0--|
D|-----|                                  D|-0-----2---2--|
A|-3---|                                  A|-2-----0---2--|
E|-----|                                  E|-3------------|



/You couldn't help out your own neighbour
E|-----------------------------------------|
B|-----------------------------------------|
G|-----------------------------------------|
D|-------------------------------------0---|
A|-------------------------------------0---|
E|-------------------------------------2---|

You couldn't tell it to his face/


      /You were fucked up by the blame/
e|---------------------------------------------------------------------------|
B|-----1---3---5-------------------------------------------------------------|
G|-0---2---4---0-------------------------------------------------------------|
D|-2---2---4-----------------------------------------------------------------|
A|-2---0---2---3-------------------------------------------------------------|
E|---------------------------------------------------------------------------|


    /You cower in the corner/        /Confide in your father/
E|---------------------------------------------------------------|
B|-5-------------------------3-5----------------------------7-8--|
G|-0-------------------------0-0----------------------------0-0--|
D|-5-------------------------4-5----------------------------7-9--|
A|-3-------------------------2-3----------------------------5-7--|
E|---------------------------------------------------------------|

 /Let it out and say/
E|-------------------------------------------|
B|-------12---3------------------------------|
G|--------0---0------------------------------|
D|-------12---4------------------------------|
A|-------10---2------------------------------|
E|-------------------------------------------|

 /You cower in the corner/        /Confide in your father/
E|---------------------------------------------------------------|
B|-5-------------------------3-5--------------------------5-7----|
G|-0-------------------------0-0--------------------------0-0----|      Here you can strum
the chord progression to get some
D|-5-------------------------4-5--------------------------5-7----|      power to the song
A|-3-------------------------2-3--------------------------3-5----|
E|---------------------------------------------------------------|

/Let it pass away/
E|--------------------------------------------------------------|
B|-8------12--3-------------------------------------------------|
G|-0----------0-------------------------------------------------|
D|-9------12--4-------------------------------------------------|
A|-7------10--2-------------------------------------------------|
E|--------------------------------------------------------------|

E|-0-0-0-0--0-0-0-0--0-0--------|
B|-5-5-5-5--7-7-7-7--8-7-12-3-5-|
G|-0-0-0-0--0-0-0-0--0-0--0-0-0-|
D|-5-5-5-5--7-7-7-7--9-7-12-4-5-|
A|-3-3-3-3--5-5-5-5--7-5-10-2-3-|
E|-----------------------.------|



Bridge

/Wait there, pull yourself out of this.../
E|-----0------------0-----------|
B|-5------------5---------------|
G|-------0---0--------0---0-----|
D|---5-----5------5-----5-------| (x2)
A|-3------------3---------------|
E|------------------------------|

/...state dear, acknowledge you were a…/
E|-----0------------0-----------|
B|-3------------3---------------|
G|-------0---0--------0---0-----|
D|---4-----4------4-----4-------| (x2)
A|-2------------2---------------|
E|------------------------------|

/...fake here, from there on you might just.../
E|-----0------------0-----------|
B|-2------------2---------------|
G|-------0---0--------0---0-----|
D|---0-----0------0-----0-------| (x2)
A|-0------------0---------------|
E|------------------------------|

/...grow     oh-oh-oh/
E|----------------------------------------|
B|-8-7--------12-3-5----------------------|
G|-0-0---------0-0-0----------------------|
D|-9-7--------12-4-5----------------------|
A|-7-5--------10-2-3----------------------|
E|----------------------------------------|


Last chorus

/Somebody call out to your brother
 He’s calling out your name
 Ooh ooh ooh
 Hiding under the covers
 With no one else to blame
 Ooh ooh ooh/

E|-0-0-0-0--0-0-0-0--0-0-0-0--0--0--0--0---0-|
B|-5-5-5-5--7-7-7-7--8-8-8-8--12-12-12-12--3-|
G|-0-0-0-0--0-0-0-0--0-0-0-0--0--0--0--0---0-| (x3)
D|-5-5-5-5--7-7-7-7--9-9-9-9--12-12-12-12--4-|
A|-3-3-3-3--5-5-5-5--7-7-7-7--10-10-10-10--2-|
E|-------------------------------------------|

/Oh, you couldn’t help out your own neighbor
/You couldn’t tell it to his face
/You were f*cked up by the blame
E|-0-0-0-0--0-0-0-0--0-0-0-0---------|
B|-5-5-5-5--7-7-7-7--8-8-8-8--12-3-5-|
G|-0-0-0-0--0-0-0-0--0-0-0-0--0--0-0-| (x3)
D|-5-5-5-5--7-7-7-7--9-9-9-9--12-4-5-|
A|-3-3-3-3--5-5-5-5--7-7-7-7--10-2-3-|
E|-----------------------------------|
comments
print report bad tab
3 comments total.
+1 reply
Threnody92 wrote on May 17 2013, 02:59 pm

Great tab, Zlash. Thanks a lot!

+1 reply
Mikkemby wrote on June 9 2013, 10:20 am

Like music to my ears, bro <3

+1 reply
rassefrasse wrote on June 26 2013, 07:08 am

Splendid tab. I love the chords, so fun to mess around with even when you're not playing the actual song.

I want to post or [tab]
guest
You may want to rate the tab now too:
select rating
Please do not post tabs as comments. Select "correction" instead!