Oops, an error
Loading. Please wait.

Brother Tab

version 4
version 4

Whole song

Interactive

10,882 views 75 this week
1 commentread comment
1 2 3 4 5
x 5
add to favorites
launch autoscroll
font size
0
reset
how to read this tab
guitar tuner
Autoscroll
slow
fast
+/-
esc
set tempo
stop
Help us to improve Ultimate-Guitar.com Take our survey!
×
Author
Capo
2nd fret
Capo 2

[Verse]
e|---------------------|     |-------------------------|---------------------|
B|-5-------5-----------|     |-12-------12-------------|-7-------7-----------|
G|--------------0------|     |-----------------0-------|--------------0------|
D|-------------------5-|     |----------------------12-|-------------------7-|
A|-3----3----3----3----|     |-10----10----10----10----|-5----5----5----5----|
E|---------------------|(x4) |-------------------------|---------------------|

e|---------------------|     |-------------------------|---------------------|
B|-5-------5-----------|     |-12-------12-------------|-7-------7-----------|
G|--------------0------|     |-----------------0-------|--------------0------|
D|-------------------5-|     |----------------------12-|-------------------7-|
A|-3----3----3----3----|     |-10----10----10----10----|-5----5----5----5----|
E|---------------------|(x4) |-------------------------|---------------------|

e|---------------------|     |------------------|------------------|
B|-5-------5-----------|     |-5-------5------3-|--5---------------|
G|--------------0------|     |-------------0--0-|--0---------------|
D|-------------------5-|     |----------------4-|--5---------------|
A|-3----3----3----3----|     |-3----3----3----2-|--3---------------|
E|---------------------|(x2) |------------------|------------------|

[Break]
e|--------------------|--------------------|--------------------|--------------------|
B|-5-------5----------|-5-------5----------|-5-------5----------|-5-------5----------|
G|--------------0-----|--------------0-----|--------------0-----|--------------0-----|
D|------------------5-|------------------5-|------------------5-|------------------5-|
A|--------------------|--------------------|--------------------|-2----2----2----2---|(Play twice with
E|-0----0----0----0---|-2----2----2----2---|-3----3----3----3---|--------------------|  both endings)

(1st Ending)
e|---------------------|     |---------------------|
B|-5-------5-----------|     |---------------------|
G|--------------0------|     |----0----0----0----0-|
D|-------------------5-|     |---------------------|
A|-3----3----3----3----|     |-3----2----0---------|
E|---------------------|(x3) |----------------3----|

(2nd Ending)
e|---------------------|     |---------0-----------|---------------------|-------|----|----|----|
B|-5-------5-----------|     |-3------------3------|-7-------7-----------|--5----|----|----|----|
G|--------------0------|     |-------------------0-|--------------0------|--0----|----|----|----|
D|-------------------5-|     |---------------------|-------------------7-|--5----|----|----|----|
A|-3----3----3----3----|     |-2----2----2----2----|-5----5----5----5----|--3----|----|----|----|
E|---------------------|(x2) |---------------------|---------------------|-------|----|----|----|

[Pre-Chorus]
e|------|-------|------|----|----|----|------|-------|------|----|------|----|
B|------|--1----|------|----|----|----|------|--1----|------|----|--3---|----|
G|--4---|--2----|--0---|----|----|----|--4---|--2----|--0---|----|--2---|----|
D|--0---|--0----|--2---|----|----|----|--0---|--0----|--2---|----|--0---|----|
A|--2---|--0----|--2---|----|----|----|--2---|--0----|--2---|----|------|----|
E|--3---|-------|--0---|----|----|----|--3---|-------|--0---|----|--2---|----|

e|------|-------|-------|-------|-------|------|
B|------|-------|--3----|--5--5-|--5--5-|--5---|
G|--4---|--5----|--0----|--0--0-|--0--0-|--0---|
D|--0---|--0----|--4----|--5--5-|--5--5-|--5---|
A|--2---|--5----|--2----|--3--3-|--3--3-|--3---|
E|--3---|--5----|-------|-------|-------|------|

[Chorus]
e|------|------|------|------|-------|-------|------|------|------|------|-----|-------|------|------|
B|----3-|-5----|----7-|-8----|-12--3-|--5--5-|-5--5-|-7--7-|-7--7-|-8----|-7---|-12--3-|-5----|------|
G|----0-|-0----|----0-|-0----|-0---0-|--0--0-|-0--0-|-0--0-|-0--0-|-0----|-0---|-0---0-|-0----|------|
D|----4-|-5----|----7-|-9----|-12--4-|--5--5-|-5--5-|-7--7-|-7--7-|-9----|-7---|-12--4-|-5----|------|
A|----2-|-3----|----5-|-7----|-10--2-|--3--3-|-3--3-|-5--5-|-5--5-|-7----|-5---|-10--2-|-3----|------|
E|------|------|------|------|-------|-------|------|------|------|------|-----|-------|------|------|

[Verse 2]
e|---------------------|     |-------------------------|---------------------|
B|-5-------5-----------|     |-12-------12-------------|-7-------7-----------|
G|--------------0------|     |-----------------0-------|--------------0------|
D|-------------------5-|     |----------------------12-|-------------------7-|
A|-3----3----3----3----|     |-10----10----10----10----|-5----5----5----5----|
E|---------------------|(x4) |-------------------------|---------------------|

e|---------------------|     |-------------------------|---------------------|
B|-5-------5-----------|     |-12-------12-------------|-7-------7-----------|
G|--------------0------|     |-----------------0-------|--------------0------|
D|-------------------5-|     |----------------------12-|-------------------7-|
A|-3----3----3----3----|     |-10----10----10----10----|-5----5----5----5----|
E|---------------------|(x4) |-------------------------|---------------------|

e|---------------------|
B|-5-------5-----------|
G|--------------0------|
D|-------------------5-|
A|-3----3----3----3----|
E|---------------------|(x4)

[Break]
e|--------------------|--------------------|--------------------|--------------------|
B|-5-------5----------|-5-------5----------|-5-------5----------|-5-------5----------|
G|--------------0-----|--------------0-----|--------------0-----|--------------0-----|
D|------------------5-|------------------5-|------------------5-|------------------5-|
A|--------------------|--------------------|--------------------|-2----2----2----2---|(Play twice with
E|-0----0----0----0---|-2----2----2----2---|-3----3----3----3---|--------------------|  both endings)

(1st Ending)
e|---------------------|     |---------------------|
B|-5-------5-----------|     |---------------------|
G|--------------0------|     |----0----0----0----0-|
D|-------------------5-|     |---------------------|
A|-3----3----3----3----|     |-3----2----0---------|
E|---------------------|(x3) |----------------3----|

(2nd Ending)
e|---------------------|     |---------0-----------|---------------------|-------|----|----|----|
B|-5-------5-----------|     |-3------------3------|-7-------7-----------|--5----|----|----|----|
G|--------------0------|     |-------------------0-|--------------0------|--0----|----|----|----|
D|-------------------5-|     |---------------------|-------------------7-|--5----|----|----|----|
A|-3----3----3----3----|     |-2----2----2----2----|-5----5----5----5----|--3----|----|----|----|
E|---------------------|(x2) |---------------------|---------------------|-------|----|----|----|

[Pre-Chorus 2]
e|------|-------|------|----|----|----|------|-------|------|----|------|----|
B|------|--1----|------|----|----|----|------|--1----|------|----|--3---|----|
G|--4---|--2----|--0---|----|----|----|--4---|--2----|--0---|----|--2---|----|
D|--0---|--0----|--2---|----|----|----|--0---|--0----|--2---|----|--0---|----|
A|--2---|--0----|--2---|----|----|----|--2---|--0----|--2---|----|------|----|
E|--3---|-------|--0---|----|----|----|--3---|-------|--0---|----|--2---|----|

e|------|-------|-------|-------|-------|-------|------|
B|------|-------|--3----|--5--5-|--5--5-|--5--5-|-5----|
G|--4---|--5----|--0----|--0--0-|--0--0-|--0--0-|-0----|
D|--0---|--0----|--4----|--5--5-|--5--5-|--5--5-|-5----|
A|--2---|--5----|--2----|--3--3-|--3--3-|--3--3-|-3----|
E|--3---|--5----|-------|-------|-------|-------|------|

[Chorus 2]
e|------|------|------|------|-------|-------|------|------|------|------|-------|
B|----3-|-5----|----7-|-8----|-12--3-|--5--5-|-5--5-|-5--5-|-5--5-|-8--8-|-12--3-|
G|----0-|-0----|----0-|-0----|-0---0-|--0--0-|-0--0-|-0--0-|-0--0-|-0--0-|-0---0-|
D|----4-|-5----|----7-|-9----|-12--4-|--5--5-|-5--5-|-5--5-|-5--5-|-9--9-|-12--4-|
A|----2-|-3----|----5-|-7----|-10--2-|--3--3-|-3--3-|-3--3-|-3--3-|-7--7-|-10--2-|
E|------|------|------|------|-------|-------|------|------|------|------|-------|

e|------|------|------|------|------|-----|-------|------|
B|-5--5-|-5--5-|-7--7-|-7--7-|-8----|-7---|-12--3-|-5----|
G|-0--0-|-0--0-|-0--0-|-0--0-|-0----|-0---|-0---0-|-0----|
D|-5--5-|-5--5-|-7--7-|-7--7-|-9----|-7---|-12--4-|-5----|
A|-3--3-|-3--3-|-5--5-|-5--5-|-7----|-5---|-10--2-|-3----|
E|------|------|------|------|------|-----|-------|------|

[Bridge]
e|---------------------|    |---------0-----------|    |---------0-----------| |---------0-----------|
B|-5-------5-----------|    |-3------------3------|    |-2------------2------| |-1------------1------|
G|--------------0------|    |-------------------0-|    |-------------------0-| |---------------------|
D|-------------------5-|    |---------------------|    |---------------------| |-------------------2-|
A|-3----3----3----3----|    |-2----2----2----2----|    |-2----2----2----2----| |-0----0----0----0----|
E|---------------------|(x8)|---------------------|(x3)|---------------------| |---------------------|(x4)

e|------|-----|-------|------|------|------|------|
B|-8----|-7---|-12--3-|-5----|------|------|------|
G|-0----|-0---|-0---0-|-0----|------|------|------|
D|-9----|-7---|-12--4-|-5----|------|------|------|
A|-7----|-5---|-10--2-|-3----|------|------|------|
E|------|-----|-------|------|------|------|------|

[Last Chorus]
e|------|------|------|------|------|------|--------|--------|
B|-5--5-|-5--5-|-7--7-|-7--7-|-8--8-|-8--8-|-12--12-|-12--12-|
G|-0--0-|-0--0-|-0--0-|-0--0-|-0--0-|-0--0-|-0---0--|-0---0--|
D|-5--5-|-5--5-|-7--7-|-7--7-|-9--9-|-9--9-|-12--12-|-12--12-|
A|-3--3-|-3--3-|-5--5-|-5--5-|-7--7-|-7--7-|-10--10-|-10--10-|
E|------|------|------|------|------|------|--------|--------|(x2)

e|------|------|------|------|------|-----|-------|------|
B|-5--5-|-5--5-|-7--7-|-7--7-|-8----|-7---|-12--3-|-5----|
G|-0--0-|-0--0-|-0--0-|-0--0-|-0----|-0---|-0---0-|-0----|
D|-5--5-|-5--5-|-7--7-|-7--7-|-9----|-7---|-12--4-|-5----|
A|-3--3-|-3--3-|-5--5-|-5--5-|-7----|-5---|-10--2-|-3----|
E|------|------|------|------|------|-----|-------|------|
Suggest correction
comments
print report bad tab
1 comment total.
0 reply
arghgriff 10 Nov 30, 2015 10:26 AM

Hey Vitamin-J,

great tab, two changes just

the main rhythm/picking is more likely this (from his acoustic performance on the radio show). Just repeat this for all the chords and movements above, he keeps hitting that open bottom string.

The second change (where you've written 1st ending) is the drop from C back down to the E, He doesn't play the A, but the F# instead. See below


e-------0---------------
b--5--------5-----------
g---------------0-------
d-----------------------
a--3--3---3---3---------
E-----------------------

e|---------0-----------| |---------------------|
B|-5------------5------| |---------------------|
G|-------------------0-| |----0----0----0----0-|
D|---------------------| |---------------------|
A|-3----3----3----3----| |-3----2--------------|
E|---------------------|x3 |-----------3----2----|



RyanG

guest
You may want to rate the tab now too:
select rating
Wanna post a correction for this tab? Suggest correction