Oops, an error
Loading. Please wait.

Letters Tab

version 1
version 1

Whole song

8,793 views 6 this week
1 commentread comment
1 2 3 4 5
worth learning
x 7
add to favorites
launch autoscroll
font size
0
reset
how to read this tab
guitar tuner
Autoscroll
slow
fast
+/-
esc
set tempo
stop
Help us to improve Ultimate-Guitar.com Take our survey!
×
Author
Difficulty
intermediate
-------------------------------------------------------------------------------
                             Letters - Matt Corby
-------------------------------------------------------------------------------
Tabbed by: Parisa.

Tuning: Just normal.
This song may not be entirely correct, but this is what my guitar teacher taught me. 
you get the basic gist of it.

e|----------0-----------------0------------------0-----------------------0--|
B|--3----------------0-----------------0H1-------------1--------0-----------|
G|--------------------------------------------------------------------------|
D|--------------------------------------------------------------------------|
A|--------------------------------------------------------------------------|
E|--3---3------3-----3-----3------3----3-----3------3------3----3----3------|

e|---------------------------------------------------------------------|
B|--------------0----------------------0---------------0---------------|
G|---0H1--------------1--------0---------------------------------------|
D|-----------------------------------------4----2------------2-----0---|
A|---------------------------------------------------------------------|
E|----3-----3------3------3----3----3------3----3----3-------3------3--|

e|------------------------------------------------------------------------------------|
B|--------------------0----------0----------------------------------------------------|
G|------------------------------------------------------------------------------------|
D|------------------------------------------------------------------------------------|
A|----0H1-0---------------------------------------------------------------------------|
E|-------------3--3------3-3-3------3-3-----------------------------------------------|

Verse:

e|----------0-----------------0------------------0-----------------------0--|
B|--3----------------0-----------------0H1-------------1--------0-----------|
G|--------------------------------------------------------------------------|
D|--------------------------------------------------------------------------|
A|--------------------------------------------------------------------------|
E|--3---3------3-----3-----3------3----3-----3------3------3----3----3------|

e|----------------------------------------------------------------------------------|
B|--------------0----------------------0-------------1------------------------------|
G|---0H1--------------1--------0--------------2-----------2-------------------------|
D|----------------------------------------------------------------------------------|
A|--------------------------------------------0---0----0-----0----------------------|
E|----3-----3------3------3----3----3-----------------------------------------------|



************************************

| /   slide up
| \   slide down
| h   hammer-on
| p   pull-off
| ~   vibrato
| +   harmonic
| x   Mute note
| b   Bend
| pb  Pre-bend
| br  Bend release
| pbr Pre-bend release
| brb Bend release bend

************************************
Suggest correction
What's this?
You can suggest a correction to this tab. Community and Mods will review your correction and vote to approve or reject it.
comments
print report bad tab
1 comment total.
-1 reply
Colcheedas 11 wrote on June 30 2013, 01:22 am

Intro


e|----------0------------------------------------0------------------0-h-1-|
B|--3----------------3-----------------0---------------0------------------|
G|----------------------------0--------------------------------0----------|
D|------------------------------------------------------------------------|
A|------------------------------------------------------------------------|
E|--3---3------3-----------3-----------3-----3------3------3--------3-----|

e|------0-------------------------0----------------------------0----------|
B|----------1-p-0---------0-------------0---------------------------------|
G|---------------------0----------------------0-----0-h-2------------2-p-0|
D|------------------------------------------------------------------------|
A|------------------------------------------------------------------------|
E|--3-------3------3------3----3----3------3--------3-------3--------3----|

e|-----------0------------------------------------------------------------|
B|----------------------------------------------------------------0-------|
G|--0--------------0------------------------------------------------------|
D|----------------------4-----2-----2---2--2--------------------0----0---0|
A|--------------------------------------------2----2---2---2--------------|
E|--3----3------3-------3-----3---3---3---3---3--3---3---3----3--------3--|

e|-----------------------------------------------|
B|----------0--------------------0---------------|
G|-----------------------------------------------|
D|------0-----0------0-------0------0-----0------|
A|-----------------------------------------------|
E|--3------------3-------3-------------3-------3-|

guest
You may want to rate the tab now too:
select rating
Please do not post tabs as comments. Select "correction" instead!