Oops, an error
Loading. Please wait.

Letters Tab

version 2
version 2

Whole song

1,543 views 3 this week
no commentswrite comment
1 2 3 4 5
excellent!
x 3
add to favorites
launch autoscroll
font size
0
reset
how to read this tab
guitar tuner
Autoscroll
slow
fast
+/-
esc
set tempo
stop
Help us to improve Ultimate-Guitar.com Take our survey!
×
Author
Difficulty
intermediate
-------------------------------------------------------------------------------
                        Letters - Matt Corby
-------------------------------------------------------------------------------
Tabbed by: Brodie


Tuning: Standard


Matt Corby plays this song differently in every live version I've seen, but this is the 
easiest way to play it.

When playing the C chord with the hammer ons, it is played like a finger roll. 

Just listen to the song and a few of his live performances and play around with it :)



Intro

e|-----------------|------0----------|-----------------|-----------------|
B|------3----------|-----------------|------3----------|------3----------|
G|----------0------|----------0------|----------0------|----------0------|
D|--------------0--|--------------0--|--------------0--|--------------0--|
A|-----------------|-----------------|-----------------|-----------------|
E|--3-3---3---3----|--3-3---3---3----|--3-3---3---3----|--3-3---3---3----|

e|------0----------|----------------|---------------------------|---------------|
B|--3--------------|--0-------------|--------0h1---1p0----------|--0------------|
G|----------0------|------0---------|------0-------------0------|------0--------|
D|--------------0--|----------0-----|--0h2-------------------0--|----------0----|
A|-----------------|----------------|---------------------------|---------------|
E|--3-3---3---3----|--3-3---3---3---|------------3-----3---3----|--3-3---3---3--|

e|----------------------|-------------------------------------------------|
B|-----------0----------|--------0------------0---------------------------|
G|-----0h2-------0------|--2p0-------0------------0------------0----------|
D|----0--------------0--|--------------4--2-----------2--2p0-----------0--|
A|----------------------|----------------------------------------2p0------|
E|--3-------3---3---3---|------3---3--------3---3---3--------3-------3----|

e|-----------------|------0----------|-----------------|-----------------|
B|------3----------|-----------------|------3----------|------3----------|
G|----------0------|----------0------|----------0------|----------0------|
D|--------------0--|--------------0--|--------------0--|--------------0--|
A|-----------------|-----------------|-----------------|-----------------|
E|--3-3---3---3----|--3-3---3---3----|--3-3---3---3----|--3-3---3---3----|




Verse


e|------0----------|---------------|-----------------------------|-----------------|
B|--3--------------|--0------------|----------0h1---1p0----------|--0--------------|
G|----------0------|------0--------|--------0-------------0------|------0----------|
D|--------------0--|----------0----|----0h2-------------------0--|----------0------|
A|-----------------|---------------|-----------------------------|-----------------|
E|--3-3---3---3----|--3-3---3---3--|--3-----------3-----3---3----|--3-3---3---3----|


e|--------0----------|------0----------|-----------------|-----------------|
B|--0h1--------------|--1--------------|------3----------|------3----------|
G|------------2------|----------0------|----------0------|----------0------|
D|----------------2--|--------------2--|--------------0--|--------------0--|
A|--0---0---0---0----|--3-3---3---3----|-----------------|-----------------|
E|-------------------|-----------------|--3-3---3---3----|--3-3---3---3----|

e|------0----------|-----------------|-----------------------------|------0----------|
B|--3--------------|--0--------------|----------0h1---1p0----------|--0--------------|
G|----------0------|------0----------|--------0-------------0------|----------0---0--|
D|--------------0--|----------0------|----0h2-------------------0--|-----------------|
A|-----------------|-----------------|-----------------------------|-----------------|
E|--3-3---3---3----|--3-3---3---3----|--3-----------3-----3---3----|--3-3---3---3----|


e|--------0----------|------0----------|-----------------|------0----------|
B|--0h1--------------|--1--------------|------3----------|-----------------|
G|------------2------|----------0------|----------0------|----------0------|
D|----------------2--|--------------2--|--------------0--|--------------0--|
A|--0---0---0---0----|--3-3---3---3----|-----------------|-----------------|
E|-------------------|-----------------|--3-3---3---3----|--3-3---3---3----|

e|-----------------|-----------------|
B|------3----------|------3----------|
G|----------0------|----------0------|
D|--------------0--|--------------0--|
A|-----------------|-----------------|
E|--3-3---3---3----|--3-3---3---3----|




Chorus

e|------0----------|------0----------|------0----------|------0----------|
B|--7--------------|--7--------------|--8--------------|--5--------------|
G|----------0------|----------0------|----------0------|----------0------|
D|--------------7--|--------------7--|--------------9--|--------------5--|
A|--5-5---5---5----|--5-5---5---5----|--7-7---7---7----|--3-3---3---3----|
E|-----------------|-----------------|-----------------|-----------------|      x4

e|-----------------|------0----------|-----------------|-----------------|
B|------3----------|-----------------|------3----------|------3----------|
G|----------0------|----------0------|----------0------|----------0------|
D|--------------0--|--------------0--|--------------0--|--------------0--|
A|-----------------|-----------------|-----------------|-----------------|
E|--3-3---3---3----|--3-3---3---3----|--3-3---3---3----|--3-3---3---3----|



e|-----|-----|-----|
B|--3--|--3--|--3--|
G|--0--|--0--|--2--|
D|--2--|--2--|--0--|
A|--3--|-----|--0--|
E|-----|--0--|-----|


e|-----------------|------0----------|-----------------|-----------------|
B|------3----------|-----------------|------3----------|------3----------|
G|----------0------|----------0------|----------0------|----------0------|
D|--------------0--|--------------0--|--------------0--|--------------0--|
A|-----------------|-----------------|-----------------|-----------------|
E|--3-3---3---3----|--3-3---3---3----|--3-3---3---3----|--3-3---3---3----|
Suggest correction
What's this?
You can suggest a correction to this tab. Community and Mods will review your correction and vote to approve or reject it.
comments
We did not receive enough feedback on this tab! Please rate:
print report bad tab
1 2 3 4 5
guest
You may want to rate the tab now too:
select rating
Please do not post tabs as comments. Select "correction" instead!