Oops, an error
Loading. Please wait.

Lonely Boy Tab

version 1
version 1

Whole song

31,670 views 48 this week
no commentswrite comment
1 2 3 4 5
x 6
add to favorites
launch autoscroll
font size
0
reset
how to read this tab
guitar tuner
Autoscroll
slow
fast
+/-
esc
set tempo
stop
Help us to improve Ultimate-Guitar.com Take our survey!
×
Author
Tuning
Capo
D A D G B E
4th fret
Matt Corby - Lonely Boy (The Black Keys Cover) LIKE A VERSION



Drop D
Capo 4th fret

VERS:
e------------------------------------------------------------------------------|
B------------------------------------------------------------------------------|
G------------------------------------------------------------------------------|
D----0-----0-----0-----0-----0-----0----0-----0-----0----0-- --0-----0---0-----|
A------5-----5-----------5-----5----------5-----5----------5-----5---------5---|
D--0-----0-----0-----0-----0-----0----3-----3-----3----5-----5-----5---5-----5-|

e------------------------------------------------------------------------------|
B------------------------------------------------------------------------------|
G------------------------------------------------------------------------------|
D------------------------------------------------------------------------------|
A--3--2-----0------------------------------------------------------------------|
D--0--0--0---------------------------------------------------------------------|

REF
e----0---0---0---0---0---0---0---0---0---0-----0-----------------------------|
B-----3---3-------3---3-------3---3-------3-----5----------------------------|
G------2---2-------2---2-------2---2-------0-----0---------------------------|
D--0------------3------------------------------------------------------------|
A---------------------------3------------------------------------------------|
D--------------------------------------3-----5-------------------------------|
Suggest correction
comments
print report bad tab
guest
You may want to rate the tab now too:
select rating
Wanna post a correction for this tab? Suggest correction