Oops, an error
Loading. Please wait.

My False Tab

version 1
version 1

Whole song

1,022 views 12 this week
no commentswrite comment
1 2 3 4 5
please rate
add to favorites
launch autoscroll
font size
0
reset
how to read this tab
guitar tuner
Autoscroll
slow
fast
+/-
esc
set tempo
stop
Help us to improve Ultimate-Guitar.com Take our survey!
×
Contributor
Difficulty
Capo
advanced
7th fret
My False
Standard Tuning
Capo 7th fret
Key of G major
^= Hammer on/pull off
~= Let ring
X=mute/ not played
xx= slap strings with palm
I’m pretty sure this is mostly correct, the tab is based on his acoustic performance, 
with the additional studio intro, the intro was learnt completely by ear, the rest was 
aided by watching him play
The reason I uploaded this is the other tabs weren't accurate, or just were some parts 
of the song, this took me a long time to write, so there might be some careless mistakes

Chords used:
e|--0--|--0--|--3--|--0--|--0--|--0--|--3--|--3--|--3--|
B|--0--|--1--|--0--|--1--|--3--|--3--|--3--|--3--|--3--|
G|--0--|--0--|--0--|--2--|--0--|--2--|--0--|--0--|--0--|
D|--2--|--2--|--0--|--3--|--2--|--0--|--2--|--2--|--0--|
A|--2--|--3--|--2--|--3--|--3--|--x--|--2--|--3--|--2--|
E|--0--|--x--|--3--|--x--|--0--|--x--|--0--|--0--|--3--|


Intro:
e|-0--0--0--0--0--0--0--0---------------------------|
B|--------------------------------------------------|
G|--0--0--0--0--0--0--0--0--------------------------|
D|---5-----5-----5-----5----------------------------|
A|-3-----3-----3-----3------------------------------|
E|--------------------------------------------------|

e|-0--0--0--0--0--0--0--0---------------------------|
B|--------------------------------------------------|
G|--0--0--0--0--0--0--0--0--------------------------|
D|---0-----0-----0-----0----------------------------|
A|-2-----2-----2-----2------------------------------|
E|--------------------------------------------------|

e|-0--0--0--0--0--0--0--0---------------------------|
B|--------------------------------------------------|
G|--0--0--0--0--0--0--0--0--------------------------|
D|---5-----5-----7-----7----------------------------|
A|-3-----3-----5-----5------------------------------|
E|--------------------------------------------------|

e|-0--0--0--0--0~-----------------------------------|
B|--------------------------------------------------|
G|--0--0--0--0--------------------------------------|
D|---9-----9----------------------------------------|
A|-7-----7-----7~-----------------------------------|
E|--------------------------------------------------|

2nd part to the intro:
e|---------------0-----0----------------------------|
B|--0--0--0--0---3-----3----------------------------|
G|---0--2--4--2--0-----2----------------------------|
D|----0--0--0----0^2---0----------------------------|
A|---------------0^3---x----------------------------|
E|-3-------------x-----x----------------------------|

e|------------------0-------------------------------|
B|--0--0--0--0--3---3----0-------0------------------|
G|---0--2--4--2--0--2----2^4^2^0-0------------------|
D|----0--0--0-------0----0-------2^0----------------|
A|------------------x-------------------------------|
E|-3----------------x-------------------------------|

e|---------------0-----0----------------------------|
B|--0--0--0--0---3-----3----------------------------|
G|---0--2--4--2--0-----2----------------------------|
D|----0--0--0----0^2---0----------------------------|
A|---------------0^3---x----------------------------|
E|-3-------------x-----x----------------------------|

e|--------------------------------------------------|
B|--0--0--0--0----3---------------------------------|
G|---0--2--4--2----0--------------------------------|
D|----0--0--0-------0-------------------------------|
A|--------------------------------------------------|
E|-3-------------3---3------------------------------|

Verse:
e|---------------0-----0----------------------------|
B|--0--0--0--0---3-----3----------------------------|
G|---0--2--4--2--0-----2----------------------------|
D|----0--0--0----0^2---0----------------------------|
A|---------------0^3---x----------------------------|
E|-3-------------x-----x----------------------------|

e|------------------0-------------------------------|
B|--0--0--0--0--3---3----0-------0------------------|
G|---0--2--4--2--0--2----2^4^2^0-0------------------|
D|----0--0--0-------0----0-------2^0----------------|
A|------------------x-------------------------------|
E|-3----------------x-------------------------------|

e|---------------0-----0----------------------------|
B|--0--0--0--0---3-----3----------------------------|
G|---0--2--4--2--0-----2----------------------------|
D|----0--0--0----0^2---0----------------------------|
A|---------------0^3---x----------------------------|
E|-3-------------x-----x----------------------------|

e|--------------------------------------------------|
B|--0--0--0--0----3---------------------------------|
G|---0--2--4--2----0--------------------------------|
D|----0--0--0-------0-------------------------------|
A|--------------------------------------------------|
E|-3-------------3---3------------------------------|

Pre Chorus:
Listen to music to get strumming pattern, last g chord is just downward strumming
e|-0-------3-------0-------3------------------------|
B|-1-------0-------1-------0------------------------|
G|-2-------0-------2-------0------------------------|
D|-3-------0-------3-------0------------------------|
A|-3-------2-------3-------2------------------------|
E|-x-------3-------x-------3------------------------|

Chorus:
On E chord and C chord just downward strums with an upstroke of open notes in-between 
the two chords, and on g chord listen to music to get pattern

e|-0-------0-0-------3-------xx---------------------|
B|-0-------0-1-------0-------xx---------------------|
G|-0-------0-2-------0-------xx---------------------|
D|-2-------0-0-------0-------xx---------------------|
A|-2-------0-3-------2-------xx---------------------|
E|-0-------0-x-------3-------xx---------------------|

Verse 2:

e|---------------0-----0----------------------------|
B|--0--0--0--0---3-----3----------------------------|
G|---0--2--4--2--0-----2----------------------------|
D|----0--0--0----0^2---0----------------------------|
A|---------------0^3---x----------------------------|
E|-3-------------x-----x----------------------------|

e|------------------0-------------------------------|
B|--0--0--0--0--3---3----0-------0------------------|
G|---0--2--4--2--0--2----2^4^2^0-0------------------|
D|----0--0--0-------0----0-------2^0----------------|
A|------------------x-------------------------------|
E|-3----------------x-------------------------------|

e|---------------0-----0----------------------------|
B|--0--0--0--0---3-----3----------------------------|
G|---0--2--4--2--0-----2----------------------------|
D|----0--0--0----0^2---0----------------------------|
A|---------------0^3---x----------------------------|
E|-3-------------x-----x----------------------------|

e|--------------------------------------------------|
B|--0--0--0--0----3---------------------------------|
G|---0--2--4--2----0--------------------------------|
D|----0--0--0-------0-------------------------------|
A|--------------------------------------------------|
E|-3-------------3---3------------------------------|x2

Pre Chorus 2:

e|-0-------3-------0-------3------------------------|
B|-1-------0-------1-------0------------------------|
G|-2-------0-------2-------0------------------------|
D|-3-------0-------3-------0------------------------|
A|-3-------2-------3-------2------------------------|
E|-x-------3-------x-------3------------------------|

e|-0-------3-------0-------3------------------------|
B|-1-------0-------1-------0------------------------|
G|-2-------0-------2-------0------------------------|
D|-3-------0-------3-------0------------------------|
A|-3-------2-------3-------2------------------------|
E|-x-------3-------x-------3------------------------|

(Single strums, except for g chord)
e|-3-------3-------3---------------------------------|
B|-3-------3-------3---------------------------------|
G|-0-------0-------0---------------------------------|
D|-2-------2-------0---------------------------------|
A|-2-------3-------2---------------------------------|
E|-x-------x-------3---------------------------------|

e|-3--3--3--3--xx------------------------------------|
B|-3--3--3--3--xx------------------------------------|
G|-0--0--0--0--xx------------------------------------|
D|-2--0--2--0--xx------------------------------------|
A|-3--2--3--2--xx------------------------------------|
E|-x--3--x--3--xx------------------------------------|

Chorus 2:

e|-0-------0-------3---------------------------------|
B|-0-------1-------0---------------------------------|
G|-0-------0-------0---------------------------------|
D|-2-------2-------0---------------------------------|
A|-2-------3-------2---------------------------------|
E|-x-------x-------3---------------------------------|x3

Single strums, except for the g chord
e|-0-------0-------3---------------------------------|
B|-0-------1-------0---------------------------------|
G|-0-------0-------0---------------------------------|
D|-2-------2-------0---------------------------------|
A|-2-------3-------2---------------------------------|
E|-x-------x-------3---------------------------------|

Bridge/ instrumental solo:

e|-0--0--0--0--0--0--0--0---------------------------|
B|--------------------------------------------------|
G|--0--0--0--0--0--0--0--0--------------------------|
D|---5-----5-----5-----0----------------------------|
A|-3-----3-----3-----2------------------------------|
E|--------------------------------------------------|

e|-0--0--0--0--0--0--0--0---------------------------|
B|--------------------------------------------------|
G|--0--0--0--0--0--0--0--0--------------------------|
D|---0-----0-----0-----0----------------------------|
A|-2-----2-----2-----2------------------------------|
E|--------------------------------------------------|

e|-0--0--0--0---0--0--0--0--------------------------|
B|--------------------------------------------------|
G|--0--0--0--0---0--0--0--0-------------------------|
D|---5-----5-----/7-----7---------------------------|
A|-3-----3-----/5-----5-----------------------------|
E|--------------------------------------------------|

e|-0--0--0--0--0--0--0--0---------------------------|
B|--------------------------------------------------|
G|--0--0--0--0--0--0--0--0--------------------------|
D|---0-----0-----0-----0----------------------------|
A|-2-----2-----2-----2------------------------------|
E|--------------------------------------------------|

e|-0--0--0--0--0--0--0--0---------------------------|
B|--------------------------------------------------|
G|--0--0--0--0--0--0--0--0--------------------------|
D|---5-----5-----5-----5----------------------------|
A|-3-----3-----3-----3------------------------------|
E|--------------------------------------------------|

e|-0--0--0--0--0--0--0--0---------------------------|
B|--------------------------------------------------|
G|--0--0--0--0--0--0--0--0--------------------------|
D|---0-----0-----0-----0----------------------------|
A|-2-----2-----2-----2------------------------------|
E|--------------------------------------------------|

e|-0--0--0--0--0--0--0--0---------------------------|
B|--------------------------------------------------|
G|--0--0--0--0--0--0--0--0--------------------------|
D|---5-----5-----5-----5----------------------------|
A|-3-----3-----3-----3------------------------------|
E|--------------------------------------------------|

e|-0--0--0--0--0--0--0--0---------------------------|
B|--------------------------------------------------|
G|--0--0--0--0--0--0--0--0--------------------------|
D|---0-----0-----0-----0----------------------------|
A|-2-----2-----2-----2------------------------------|
E|--------------------------------------------------|

e|-0--0--0--0--0--0--0--0---------------------------|
B|--------------------------------------------------|
G|--0--0--0--0--0--0--0--0--------------------------|
D|---5-----5-----5-----5----------------------------|
A|-3-----3-----3-----3------------------------------|
E|--------------------------------------------------|

e|-0--0--0--0--0--0--0--0---------------------------|
B|--------------------------------------------------|
G|--0--0--0--0--0--0--0--0--------------------------|
D|---0-----0-----0-----0----------------------------|
A|-2-----2-----2-----2------------------------------|
E|--------------------------------------------------|

e|--0---0--0---0--0--0---0--0-----------------------|
B|--------------------------------------------------|
G|---0---0--0---0--0--0---0--0----------------------|
D|--/-7------7-----/9------9------------------------|
A|-/5------5-----/7------7--------------------------|
E|--------------------------------------------------|

e|-0--0--0--0--0--0--0--0---------------------------|
B|--------------------------------------------------|
G|--0--0--0--0--0--0--0--0--------------------------|
D|---5-----5-----5-----5----------------------------|
A|-3-----3-----3-----3------------------------------|
E|--------------------------------------------------|

e|-0--0--0--0--0--0--0--0---------------------------|
B|--------------------------------------------------|
G|--0--0--0--0--0--0--0--0--------------------------|
D|---0-----0-----0-----0----------------------------|
A|-2-----2-----2-----2------------------------------|
E|--------------------------------------------------|

e|-0--0--0--0--0--0--0--0---------------------------|
B|--------------------------------------------------|
G|--0--0--0--0--0--0--0--0--------------------------|
D|---5-----5-----5-----5----------------------------|
A|-3-----3-----3-----3------------------------------|
E|--------------------------------------------------|

e|-0--0--0--0--0--0--0--0---------------------------|
B|--------------------------------------------------|
G|--0--0--0--0--0--0--0--0--------------------------|
D|---0-----0-----0-----0----------------------------|
A|-2-----2-----2-----2------------------------------|
E|--------------------------------------------------|

Chorus:

e|-3-------3-------3--------------------------------|
B|-3-------3-------3--------------------------------|
G|-0-------0-------0--------------------------------|
D|-2-------2-------0--------------------------------|
A|-2-------3-------2--------------------------------|
E|-x-------x-------3--------------------------------|x3

e|-3-------3-------3-------xx-----------------------|
B|-3-------3-------3-------xx-----------------------|
G|-0-------0-------0-------xx-----------------------|
D|-2-------2-------0-------xx-----------------------|
A|-2-------3-------2-------xx-----------------------|
E|-x-------x-------3-------xx-----------------------|

Outro:

e|---------------0-----0----------------------------|
B|--0--0--0--0---3-----3----------------------------|
G|---0--2--4--2--0-----2----------------------------|
D|----0--0--0----0^2---0----------------------------|
A|---------------0^3---x----------------------------|
E|-3-------------x-----x----------------------------|

e|------------------0-------------------------------|
B|--0--0--0--0--3---3----0-------0------------------|
G|---0--2--4--2--0--2----2^4^2^0-0------------------|
D|----0--0--0-------0----0-------2^0----------------|
A|------------------x-------------------------------|
E|-3----------------x-------------------------------|

e|---------------0-----0----------------------------|
B|--0--0--0--0---3-----3----------------------------|
G|---0--2--4--2--0-----2----------------------------|
D|----0--0--0----0^2---0----------------------------|
A|---------------0^3---x----------------------------|
E|-3-------------x-----x----------------------------|

(Slowing)
e|--------------------------------------------------|
B|--0--0--0--0----3---------------------------------|
G|---0--2--4--2----0--------------------------------|
D|----0--0--0-------0-------------------------------|
A|--------------------------------------------------|
E|-3-------------3----------------------------------|

Ending chords:

e|-0----0----3~----|
B|-0----0----3~----|
G|-0----0----0~----|
D|-2----2----0~----|
A|-2----3----2~----|
E|-x----x----3~----|
comments
We did not receive enough feedback on this tab! Please rate:
print report bad tab
1 2 3 4 5
I want to post or [tab]
guest
You may want to rate the tab now too:
select rating
Please do not post tabs as comments. Select "correction" instead!