Oops, an error
Loading. Please wait.

Resolution Tab

version 1
version 1

Whole song

13,223 views 15 this week
4 commentsread comments
1 2 3 4 5
worth learning
x 5
add to favorites
launch autoscroll
font size
0
reset
how to read this tab
guitar tuner
Tab Pro tools
  • play this tab
  • loop segment
  • change instrument
  • show fretboard
  • metronome
Autoscroll
slow
fast
+/-
esc
set tempo
stop
Contributor
Difficulty
intermediate
-------------------------------------------------------------------------------
                             RESOLUTION - Matt Corby
-------------------------------------------------------------------------------
Tabbed by: Volcz
email: volcom_1720@live.com
(e-mail I created just so you can send me any errors/updates)

Tuning: Standard

Matt Corby's sick new song, I knew I had to tab it. This is tabbed as to how he plays it 
live per this video - http://www.youtube.com/watch?v=mcANQ2sq17g
It still works over the recorded version.

*Entire song is fingerpicked*
I'm using my thumb and index. The way you play the rhythm is up to you. I tend to 
alternate quickly between each note.

Intro/Verse

e|-----------------------------------------------------------------------------|
B|12---12-12-----12-12-----12-12------12-12----12-12----12-13----13-13----13---|
G|--12-------12--------12---------12--------12-------12-------12-------12------|
D|-----------------------------------------------------------------------------|
A|-----------------------------------------------------------------------------|
E|-----------------------------------------------------------------------------|


Pre-Chorus

   Cmajor  - chord is played twice
e|---8-------------------------------------------------------------------------|
B|---8-------------------------------------------------------------------------|
G|---9-------------------------------------------------------------------------|
D|---10------------------------------------------------------------------------|
A|---10------------------------------------------------------------------------|
E|---8-------------------------------------------------------------------------|


Chorus (I'll show you the notes for each phrase, then repeat them in a rhythm as you 
please. I've transcribed the rhythm I do).


    1st Phrase x2    2nd Phrase x2    3rd Phrase x2  4th Phrase x1 then back to Phrase 1.
e|-----------------|----------------|-------------|--------------------------|
B|----12--12--12---|----15--15--15--|---8-8-8-----|---8---7---8----10--------|
G|--12--12--12-----|--16--16--16----|--9-9-9------|--9-9-7-7-9-9-11--11------|
D|---------------------------------------------------------------------------|
A|---------------------------------------------------------------------------|
E|---------------------------------------------------------------------------|

And that's pretty much the song. Again this is transcribed with the rhythm I do which is 
pretty similar to Matt's. But if you want the same rhythm he is doing I suggest 
cehcking out the video I linked at the start of the tab.

Cheers.

************************************

| /   slide up
| \   slide down
| h   hammer-on
| p   pull-off
| ~   vibrato
| +   harmonic
| x   Mute note
| b   Bend
| pb  Pre-bend
| br  Bend release
| pbr Pre-bend release
| brb Bend release bend

************************************
comments
print report bad tab
4 comments total. Showing first comments.
0 reply
Alphaform wrote on June 8 2013, 06:58 am

Thanks mate!

0 reply
hay-jay98 wrote on July 27 2013, 11:44 pm

Yeah, really good well done! :)

0 reply
desbutler wrote on July 28 2013, 10:35 am

there is a moving bass line that he plays along with the 12s and so on but good tab

I want to post or [tab]
guest
You may want to rate the tab now too:
select rating
Please do not post tabs as comments. Select "correction" instead!