Oops, an error
Loading. Please wait.

Resolution tab

version 4
version 4

Whole song

1,101 views 6 this week
no commentswrite comment
1 2 3 4 5
x 3
add to favorites
×
Save as Personal and add changes to this tab that will be seen only by you. Learn more ›
×
You can save this tab as Personal to edit and correct it or add notes. All changes will be seen only by you. Learn more »
launch autoscroll
font size
0
reset
how to read this tab
guitar tuner
edit
Autoscroll
slow
fast
+/-
esc
set tempo
stop
Author
Difficulty
---------------------------------------------------------------------------------------------
                                   Resolution - Matt Corby
---------------------------------------------------------------------------------------------
Tabbed by: Ryan Powell
E-mail: ryanjpowell98@gmail.com

Tuning: Standard

Intro:

e|------10---------10---------10---------10---------10---------10---------10---------10-----|
B|----------8----------8----------8----------8----------8----------8----------8----------8--|
G|------------------------------------------------------------------------------------------|
D|------------------------------------------------------------------------------------------|
A|--10---------10---------10---------10---------10---------10---------10---------10---------|
E|------------------------------------------------------------------------------------------|

Verse One: I'm giving up 
           This whole lie, this whole me...

e|------10---------10---------10---------10---------10---------10---------10---------10-----|
B|----------8----------8----------8----------8----------8----------8----------8----------8--|
G|------------------------------------------------------------------------------------------|
D|------------------------------------------------------------------------------------------|
A|--10---------10---------10---------10---------10---------10---------10---------10---------|
E|------------------------------------------------------------------------------------------|
                                                                                                X2
e|------10--------10--------10--------10---------10---------10---------10---------10-----|
B|----------8---------8---------8---------8----------8----------8----------8----------8--|
G|---9---------9---------9----------9----------------------------------------------------|
D|-------------------------------------------10---------10---------10---------10---------|
A|---------------------------------------------------------------------------------------|
E|---------------------------------------------------------------------------------------|

Instead I bide my time, get a ride...

e|------10--------10--------10--------10--------10--------10--------10--------10-----|  With this one, you will
B|----------8---------8---------8---------8---------8---------8---------8---------8--|  have to change fingers 
G|---9---------9---------9---------9---------7---------7---------7---------7---------|  on B and G to get the 
D|-----------------------------------------------------------------------------------|  correct sound. This is
A|-----------------------------------------------------------------------------------|  what I believe how Matt
E|-----------------------------------------------------------------------------------|  Corby does it anyway.

e|------10---------10---------10---------10---------10---------10---------10---------10-----|
B|----------8----------8----------8----------8----------8----------8----------8----------8--|
G|------------------------------------------------------------------------------------------|
D|--10---------10---------10---------10---------10---------10---------10---------10---------|
A|------------------------------------------------------------------------------------------|
E|------------------------------------------------------------------------------------------|

Until the rubber leaves the road...

e|------10---------10---------10---------10---------10---------10---------10---------10-----|
B|----------8----------8----------8----------8----------8----------8----------8----------8--|
G|------------------------------------------------------------------------------------------|
D|------------------------------------------------------------------------------------------|
A|--10---------10---------10---------10---------10---------10---------10---------10---------|
E|------------------------------------------------------------------------------------------|

*Repeat for Verse Two.*


CHORUS:

So, don’t you worry...

e|------------------------------------------------------------------------------------------|
B|-------------------5--------5--------5--------5--------5--------5--------5--------5-------|
G|----------------------0--------0-------0---------0--------0--------0--------0--------0----|
D|------------------------------------------------------------------------------------------|
A|----------------3--------3--------3--------3--------3--------3--------3--------3----------|
E|------------------------------------------------------------------------------------------|

e|------------------------------------------------------------------------------------------|
B|-----8--------8--------8--------8---------12---------12---------12---------12-------------|
G|--------0--------0--------0--------0----------0----------0----------0----------0----------|
D|------------------------------------------------------------------------------------------|
A|--7--------7--------7--------7--------10---------10---------10---------10-----------------|
E|------------------------------------------------------------------------------------------|

e|----------------------------------------------------------------------------------|
B|-----5--------5-------5--------5--------5--------3--------5--------7--------------|
G|--------0--------0-------0--------0--------0--------0--------0--------0-----------|
D|----------------------------------------------------------------------------------|
A|--3--------3-------3--------3--------3--------2--------3--------5-----------------|
E|----------------------------------------------------------------------------------|

e|----------------------------------------------------------------------------------|
B|-----8--------8--------8--------8---------12---------12---------12---------12-----|
G|--------0--------0--------0--------0----------0----------0----------0----------0--|
D|----------------------------------------------------------------------------------|
A|--7--------7--------7--------7--------10---------10---------10---------10---------|
E|----------------------------------------------------------------------------------|


Verse Three:

One month down and it’s in sight...

e|------10---------10---------10---------10---------10---------10---------10---------10-----|
B|----------8----------8----------8----------8----------8----------8----------8----------8--|
G|------------------------------------------------------------------------------------------|
D|------------------------------------------------------------------------------------------|
A|--10---------10---------10---------10---------10---------10---------10---------10---------|
E|------------------------------------------------------------------------------------------|
                                                                                                X2
e|------10--------10--------10--------10---------10---------10---------10---------10-----|
B|----------8---------8---------8---------8----------8----------8----------8----------8--|
G|---9---------9---------9----------9----------------------------------------------------|
D|-------------------------------------------10---------10---------10---------10---------|
A|---------------------------------------------------------------------------------------|
E|---------------------------------------------------------------------------------------|

It's dangerous to speak and sigh...

e|------10--------10--------10--------10--------10--------10--------10--------10-----|  Remember, change fingers
B|----------8---------8---------8---------8---------8---------8---------8---------8--|  on B and G to get the  
G|---9---------9---------9---------9---------7---------7---------7---------7---------|  correct sound. 
D|-----------------------------------------------------------------------------------|   
A|-----------------------------------------------------------------------------------|  
E|-----------------------------------------------------------------------------------|  

e|------10---------10---------10---------10---------10---------10---------10---------10-----|
B|----------8----------8----------8----------8----------8----------8----------8----------8--|
G|------------------------------------------------------------------------------------------|
D|--10---------10---------10---------10---------10---------10---------10---------10---------|
A|------------------------------------------------------------------------------------------|
E|------------------------------------------------------------------------------------------|

You might know what I'm trying to hide...

e|------10---------10---------10---------10---------10---------10---------10---------10-----|
B|----------8----------8----------8----------8----------8----------8----------8----------8--|
G|------------------------------------------------------------------------------------------|
D|------------------------------------------------------------------------------------------|
A|--10---------10---------10---------10---------10---------10---------10---------10---------|
E|------------------------------------------------------------------------------------------|

*Repeat for Verse Four.*


CHORUS:

So, don’t you worry...

e|------------------------------------------------------------------------------------------|
B|-------------------5--------5--------5--------5--------5--------5--------5--------5-------|
G|----------------------0--------0-------0---------0--------0--------0--------0--------0----|
D|------------------------------------------------------------------------------------------|
A|----------------3--------3--------3--------3--------3--------3--------3--------3----------|
E|------------------------------------------------------------------------------------------|

e|------------------------------------------------------------------------------------------|
B|-----8--------8--------8--------8---------12---------12---------12---------12-------------|
G|--------0--------0--------0--------0----------0----------0----------0----------0----------|
D|------------------------------------------------------------------------------------------|
A|--7--------7--------7--------7--------10---------10---------10---------10-----------------|
E|------------------------------------------------------------------------------------------|

e|----------------------------------------------------------------------------------|
B|-----5--------5-------5--------5--------5--------3--------5--------7--------------|
G|--------0--------0-------0--------0--------0--------0--------0--------0-----------|
D|----------------------------------------------------------------------------------|
A|--3--------3-------3--------3--------3--------2--------3--------5-----------------|
E|----------------------------------------------------------------------------------|

e|----------------------------------------------------------------------------------|
B|-----8--------8--------8--------8---------12---------12---------12---------12-----|
G|--------0--------0--------0--------0----------0----------0----------0----------0--|
D|----------------------------------------------------------------------------------|
A|--7--------7--------7--------7--------10---------10---------10---------10---------|
E|----------------------------------------------------------------------------------|

Pause for Choir.

Outro: **Play this part softly and gently.**

Turn around, put it down and see...

e|------10---------10---------10---------10---------10---------10---------10---------10-----|
B|----------8----------8----------8----------8----------8----------8----------8----------8--|
G|------------------------------------------------------------------------------------------|
D|------------------------------------------------------------------------------------------|
A|--10---------10---------10---------10---------10---------10---------10---------10---------|
E|------------------------------------------------------------------------------------------|
                                                                                                X2
e|------10--------10--------10--------10---------10---------10---------10---------10-----|
B|----------8---------8---------8---------8----------8----------8----------8----------8--|
G|---9---------9---------9----------9----------------------------------------------------|
D|-------------------------------------------10---------10---------10---------10---------|
A|---------------------------------------------------------------------------------------|
E|---------------------------------------------------------------------------------------|

I'm not you, nor you me...

e|------10--------10--------10--------10--------10--------10--------10--------10-----|  Remember, change fingers
B|----------8---------8---------8---------8---------8---------8---------8---------8--|  on B and G to get the  
G|---9---------9---------9---------9---------7---------7---------7---------7---------|  correct sound. 
D|-----------------------------------------------------------------------------------|   
A|-----------------------------------------------------------------------------------|  
E|-----------------------------------------------------------------------------------|  

e|------10---------10---------10---------10---------10---------10---------10---------10-----|
B|----------8----------8----------8----------8----------8----------8----------8----------8--|
G|------------------------------------------------------------------------------------------|
D|--10---------10---------10---------10---------10---------10---------10---------10---------|
A|------------------------------------------------------------------------------------------|
E|------------------------------------------------------------------------------------------|

But we’re both moving steady...

e|------10---------10---------10---------10---------13---------13----------13----------13--------12--|
B|----------8----------8----------8----------8----------12---------12----------12----------12----12--|
G|---------------------------------------------------------------------------------------------------|
D|---------------------------------------------------------------------------------------------------|
A|--10---------10---------10---------10---------10---------10----------10----------10------------10--|
E|---------------------------------------------------------------------------------------------------|


**********************************************
LYRICS:

I'm giving up
This whole lie, this whole me
Call it out like a family
Instead I bide my time, get a ride
Until the rubber leaves the road

You said don’t lie so I made the truth
Seemed like a lie to even you
Control your fear. It's clear
That you do not know where you're going to

So, don’t you worry
You'll be my resolution
Characters of no illusion
You'll be my resolution

One month down and it’s in sight
Oh, I'm guaranteed to lose my mind
It's dangerous to speak and sigh
You might know what I'm trying to hide

So from the cradle to quarter age
oh, I bought the book but didn't flip the page
oh, readiness is near. We steer
As far away from the coming of days

So, don’t you worry
You'll be my resolution
Characters of no illusion
You'll be my resolution
Characters of no illusion
You'll be my resolution

Turn around, put it down and see
That this is really the place to be.
I'm not you, nor you me
But we’re both moving steady.

**********************************************

            
            
Suggest correction
Creating personal tab
Creating personal tab
You can edit any tab online and save it as your Personal.

You can edit, replace or remove any tab part or add personal notes – all changes will be seen only by you.

Personal tabs can be accessed anytime from any device, even offline.
Learn more »
Give kudos to tab author, rate the tab!
1 2 3 4 5
comments
print report bad tab
guest
You may want to rate the tab now too:
select rating
Wanna post a correction for this tab? Suggest correction