Oops, an error
Loading. Please wait.

Souls A Fire Tab

version 1
version 1

Intro

Whole song

18,539 views 27 this week
3 commentsread comments
1 2 3 4 5
x 3
add to favorites
launch autoscroll
font size
0
reset
how to read this tab
guitar tuner
×
Best way to learn
"Souls A Fire"
Autoscroll
slow
fast
+/-
esc
set tempo
stop
Difficulty
intermediate
e|-------------------------|----------------------------------------|
B|---------4-------1-------|---------4--------1---------------------|
G|-----------5--3------0h2-|----2p0-----5--3-------2b---------------|
D|-------------------------|----------------------------------------|
A|---3---------------------|----------------------------------------|
E|-5-----------------------|----------------------------------------|

e|--------------------------------------------------------1p0-------|
B|-------------------------------------------4-4--------------------|
G|-------------5\3-------------------------------5--3----------2/5--|
D|-------3h5-----------5p3p0----------------------------------------|
A|0h3h5---------------------------3p0-------------------------------|
E|------------------------------------------------------------------|

Well he had the poisen in his lungs
e|------------------------------------------------------------------|
B|--4--------2------------------------------------------------------|
G|----5---3----2----------------------------------------------------|
D|------------------------------------------------------------------|
A|------------------------------------------------------------------|
E|------------------------------------------------------------------|

And it will become undone
e|------------------------------------------------------------------|
B|--4--------2------------------------------------------------------|
G|----5---3----2b---------------------------------------------------|
D|------------------------------------------------------------------|
A|------------------------------------------------------------------|
E|------------------------------------------------------------------|

Some sort of freak that feels no pain
e|------------------------------------------------------------------|
B|4-4--------2------------------------------------------------------|
G|----5---3----2/5--------------------------------------------------|
D|------------------------------------------------------------------|
A|------------------------------------------------------------------|
E|------------------------------------------------------------------|

Walked through the fire like it feels like rain
e|------------------------------------------------------------------|
B|--4--------2------------------------------------------------------|
G|----5---3----2----------------------------------------------------|
D|------------------------------------------------------------------|
A|------------------------------------------------------------------|
E|------------------------------------------------------------------|
Suggest correction
Give kudos to tab author, rate the tab!
1 2 3 4 5
comments
print report bad tab
3 comments total.
+1 reply
spyder52 127 Oct 28, 2012 05:49 AM

Matt tunes his B string up to a C to play this, it makes it easier and sounds better!

+1 reply
Skeletore 51 Dec 20, 2012 03:35 AM

Just some things to add :)
Some chords he uses for the chorus figure out pattern from listening to the song (not sure if they're right just tried to guess from watching where his fingers were in videos).
And also the ending.
e|--6-----3----------------|----------------------------------------|
C|--7-----4----------------|-----3p0--------------------------------|
G|--8--6--5--2-------------|------------3p0----------------x2-------|
C|--0--4--0--3-------------|------------------3p0---0---------------|
A|--0--4--0----------------|3-3------3------3-----3-----------------|
E|--8--6--5--1-------------|----------------------------------------|

2nd time through leave the last note out.

e|------------------------------------------------------------------|
C|------3p0----------------------3p0--------------------------------|
G|-------------3p0----------------------3p0-------------------------|
C|--------------------3p0---------------------3p0-------------------|
A|------------------------------------------------------------------|
E|-1-1------1-------1-----1--3-3-----3------3------3----------------|

Then back to the start of the riff and repeat however many times matt plays it. Then finish on the intro riff but slowed down at the end.

, Callum.

guest
You may want to rate the tab now too:
select rating
Wanna post a correction for this tab? Suggest correction