Oops, an error
Loading. Please wait.

Souls A Fire Tab

version 1
version 1

Whole song

24,533 views 120 this week
3 commentsread comments
1 2 3 4 5
accurate
x 11
add to favorites
launch autoscroll
font size
0
reset
how to read this tab
guitar tuner
Autoscroll
slow
fast
+/-
esc
set tempo
stop
Help us to improve Ultimate-Guitar.com Take our survey!
×
Difficulty
novice
hey guys this is my first tab so I really enjoyed playing this song and although its not 
perfect its good a good tune to it!
what you want to do is tune your b and d stings to following
d=c
b=c

[Intro]

e|---------------------------------------|
C|------3--0----------0------------------|
G|------0--0-----3----------2h-----2b0---|
C|--------------------------0------0-----|
A|--3---------3----3---------------------|
E|--------------------------1------1-----|

e|----------------------------------------------------------------|
C|------3--0--------0---------------------------------------------|
G|------0--0-----3--------2h-----------------5b3------------------|
C|------------------------0---------------3h5---5b3---------------|
A|--3---------3----3----------------0h3h5-------------------------|
E|------------------------1---------------------------------------|

e|---------------------1b0-----------------|
C|------3----3-0---------------------------|
G|------0----0-0-----3-------2h-----2b0----|
C|---------------------------0-------------|
A|--3-----3-------3------------------------|
E|---------------------------1------1------|

e|--------------------------------|
C|------3--0----------0-----------|
G|------0--0-----3----------2h----|
C|--------------------------0-----|
A|--3---------3----3--------------|
E|--------------------------1-----|


[Chorus]

   C7                Bbsus2            Am7              F
e|6-6-6-6-6-6-6-6---x-x-x-x-x-x-x-x---3-3-3-3-3-3-3-3---x-x-x-x-x-x-x-x--|
C|7-7-7-7-7-7-7-7---5-5-5-5-5-5-5-5---4-4-4-4-4-4-4-4---x-x-x-x-x-x-x-x--|
G|x-x-x-x-x-x-x-x---5-5-5-5-5-5-5-5---x-x-x-x-x-x-x-x---2-2-2-2-2-2-2-2--|
C|x-x-x-x-x-x-x-x---5-5-5-5-5-5-5-5---x-x-x-x-x-x-x-x---3-3-3-3-3-3-3-3--|
A|x-x-x-x-x-x-x-x---x-x-x-x-x-x-x-x---x-x-x-x-x-x-x-x--------------------|
E|8-8-8-8-8-8-8-8---6-6-6-6-6-6-6-6---5-5-5-5-5-5-5-5---1-1-1-1-1-1-1-1--|


[Bridge]

e|-----------------------------------------------------------------------------|
C|-----------3h0---------------------------3h0---------------------------------|
G|------------------3h0---------------------------3h0--------------------------|
C|--------------------------3h0-0------------------------3h0--0----------------|
A|---3--3---------3-------3----------------------------------------------------|
E|-----------------------------------1--1-------1------1-----------------------|

e|--------------------------------------|
C|----------3h0------------3h0----------|
G|----------------0--------------0------|
C|--------------------------------------|
A|-------------------1--1---------------|
E|----3--3------------------------------|



************************************

| x  Dead note
| h  Hammer-on
| b  Bend

************************************
Suggest correction
comments
print report bad tab
3 comments total.
0 reply
mikestriker 41 wrote on August 13 2013, 12:23 am

hey guys I uploaded this tab before and I made a mistake on the tuning its not d and b.

high e and b go up 1 step each!!. I apologize for the silly tuning

0 reply
dr92 172 wrote on August 23 2014, 10:31 am

The fill in the intro sounds to me like


-------------------------------|
-------------------------------|
------------5\3p0--------------|
--------3h5-------0-3p0---0----|
--0h3h5-----------------5------|
-------------------------------|

0 reply
camster4153 92 wrote on September 21 2015, 09:57 am, edited at 09:58 am

I'm %90 percent sure it is this (in std tuning):

--------------------------------------|
--------------------------------------|
--2/0---------------5\3p0-----0-------|
------------------5-------------------|
----------3p0-5/7---------5/6---5\3---|
--1/11--------------------------------|

guest
You may want to rate the tab now too:
select rating
Wanna post a correction for this tab? Suggest correction