Oops, an error
Loading. Please wait.

Untitled Tab

version 1
version 1

Whole song

16,859 views 78 this week
1 commentread comment
1 2 3 4 5
excellent!
x 10
add to favorites
launch autoscroll
font size
0
reset
how to read this tab
guitar tuner
Autoscroll
slow
fast
+/-
esc
set tempo
stop
Help us to improve Ultimate-Guitar.com Take our survey!
×
Author
Difficulty
Capo
novice
7th fret
Matt Corby - Untitled (live version)
Tuning: Standard
Capo: 7th fret

Notes: I got this from watching and listening to a few of the live videos
of him playing this song. Its not from one specific video.
Please let me know if you see anything wrong or have questions.
Be sure to read the notes under each section! Should be 100% Correct!

Intro:
e|-------------0----------------0------0--------0h3p0-----0------0-----------|
B|-1----1--1h3---3-1--1-----1h3---3-1--1------1-----------1--1h3---3-1--1--1-|
G|-0h2--2-------------0--0-------------2----2---------2---2-------------0--0-|
D|-3----3-------------2--0-------------3--3-------------3-3-------------2--0-|
A|--------------------3--2----------------------------------------------3--2-|
E|-----------------------3-------------------------------------------------3-|

Verse:
Oh I threw the letter into the flame... And watched the fire regain
e|--0------------0------0--------0-------------0----------0-------0--------|
B|--1------------1------1--------0-------------0----------1-------0--------|
G|--2------------0------0--------2-------------4----------0-------2--------|
D|--2------------0------2--------3-------------5----------2-------3--------| (x2)
A|---------------2------3--------3-------------5----------3-------3--------|
E|---------------3---------------1-------------3------------------1--------|

*Repeat last three chords after second time*
(for these lyrics:"so turn to ash in the flume")


Chorus:
          and Colors are dull as the feeling of cold...
e|-0-1-0-1-|-0---1--------0---1----------------------|
B|-0-1-0-1-|-0---1--------0---1-------1----------1---|
G|-2-2-2-2-|-2---2--------2---2-------0----------0---|
D|-3-3-3-3-|-3---3--------3---3-------0h2--------0---|(x3)
A|-3-3-3-3-|-3---3--------3---3-------3----------2---|
E|-1-1-1-1-|-1---1--------1---1------------------3---|

*on third time through dont play the last chord
 just hold out the C chord shape as it dies out*

Post Chorus:
oh dont you fret...
e|---------------------------------------------------|
B|---------------------------------------------------|
G|---0-0---0-0---2-2---0-0---------0-0---------------|
D|---2-2---2-2---2-2---2-2---3-3---2-2---0-0---0-0---|(x2)
A|-3-----3-----0-----2-------3-3-3-------2-2---2-2---|
E|-------------------------1-----------3-----3-------|

*second time through strum the C chord a few times until the bridge instead of the last 
three notes*


Bridge:
  ooh oh oh...
e|----0------0----0--------------0------3----0------------|
B|--3---3-1--1--3---3-1--1--1--3---3-1--1--3---3-1--1--1--|
G|-----------2-----------0--0-----------2-----------0--0--|
D|-----------3-----------2--0-----------3-----------2--0--|
A|-----------------------3--2-----------------------3--2--|
E|--------------------------3--------------------------3--|

That is pretty much it to the song!


Song Order:
Intro
Verse
Chorus
Post Chorus
Bridge
Verse
Chorus
Post Chorus
Suggest correction
comments
print report bad tab
1 comment total.
-2 reply
lucascarmo 56 wrote on June 25 2014, 02:14 pm

That's just wrong

guest
You may want to rate the tab now too:
select rating
Please do not post tabs as comments. Select "correction" instead!