Oops, an error
Loading. Please wait.

Untitled tab

version 2
version 2

Whole song

6,074 views 27 this week
1 commentread comment
1 2 3 4 5
x 10
add to favorites
×
Save as Personal and add changes to this tab that will be seen only by you. Learn more ›
×
You can save this tab as Personal to edit and correct it or add notes. All changes will be seen only by you. Learn more »
launch autoscroll
font size
0
reset
how to read this tab
guitar tuner
edit
Autoscroll
slow
fast
+/-
esc
set tempo
stop
Title:  Untitled/Into The Flame.
Album:  Into The Flame.
Artist: Matt Corby.
Year:   2011

Capo: 7th 

Intro:

 (Played Softly,Freely)

              Fmaj7/A           Csus2             C
e|----0-----------------0------------------------------------------|
B|--3---3--1--1-------3---3--1--1----------1------1----------------|
G|------------0h2---------------0-------0--0h2p0--0---0---0--------|
D|------------3-----------------0h2--------0------2-----2----------|
A|------------------------------3-----------------3---------3------|
E|-----------------------------------------------------------------|

              Fmaj7/A           Csus2                    G
e|----0-----------------0------------------------------------------|
B|--3---3--1--1-------3---3--1--1-----1------------------3---------|
G|------------0h2---------------0-----0------------------0---------|
D|------------3-----------------0h2---2------------------0---------|
A|------------------------------3-----3----3p2p0-----2---2---------|
E|-----------------------------------------------3-------3---------|

Verse:

 (Lightly Strummed, slightly muted)

         Am       G       Csus2     F     F         G        G
e|----------------------------------------0---------0--------0-----|
B|-------1--------0-------1---------------1---------3--------3-----|
G|-------2--------0-------0---------2-----2---------4--------4-----|
D|-------2--------0-------0h2p0-----3-----3---------5--------5-----|
A|----0-----------2-------3-----3---3-----3---------5--------------|
E|----------------3-----------------1-----1---------3--------------|
 So I threw--Your letter--into--the flame-------And watched----
      
     Csus2     F
e|-------------0----------------------------------------------------|
B|---1---------1----------------------------------------------------|
G|---0---------2----------------------------------------------------|
D|---0h20------3----------------------------------------------------|
A|---3-----3---3----------------------------------------------------|
E|-------------1----------------------------------------------------|
 The fire--Re--gain.

          Am       G     Csus2                       G        G
e|-----------------------------------------0---------0--------0-----|
B|--------1--------0-----1-----------------1---------3--------3-----|
G|--------2--------0-----0-----------2-----3---------4--------4-----|
D|--------2--------0-----0h2p0-------3-----3---------5--------5-----|
A|-----0-----------2-----3-------3---3-----3---------5--------------|
E|-----------------3-----------------1-----1---------3--------------|
 These words--Have done--Nothing for you----------As I 
      
      Csus2           F      F    F     G         Csus2  C     F
e|--------------------0------0----0----------------------------0----|
B|---1----------------1------1----1---------------1------1-----1----|
G|---0----------------2------2----2-----0---------0------0-----2----|
D|---0h20--0----------3------3----3-----0---------0h2----2p0---3----|
A|---3----------3-----3-----------------2---------3------3-----3----|
E|--------------------1-----------------3----------------------1----|
 Did not---Read them--Through-------Now turned-To ash-in the---Flume.

Pre Chorus:

  (Strummed Slowly, slightly muted)
     Fm#11  F         Fm#11   F       C    C     C      G
e|---0------1---------0-------1------------0-----------------------|
B|---0------1---------0-------1-------1----1-----------------------|
G|---2------2---------2-------2-------0----0------------0----------|
D|---3------3---------3-------3-------2----------2------0----------|
A|---3------3---------3-------3-------3----------3------2----------|
E|---1------1---------1-------1-------------------------3----------|
 And co-----Lors--Are dull----As--The Feeling----Of the cold.

     Fm#11  F         Fm#11   F       C    C     C      G
e|---0------1---------0-------1------------0-----------------------|
B|---0------1---------0-------1-------1----1-----------------------|
G|---2------2---------2-------2-------0----0-------------0---------|
D|---3------3---------3-------3-------2----------2-------0---------|
A|---3------3---------3-------3-------3----------3-------2---------|
E|---1------1---------1-------1--------------------------3---------|
 And Mem---ories------Fall----As--The Fire----is getting old.

        F      Fm#11  F      Fm#11   F    Fm#11  F    
e|------1------0------1------0-------1----0------1-----------------|
B|------1------0------1------0-------1----0------1-----------------|
G|------2------2------2------2-------2----2------2-----------------|
D|------3------3------3------3-------3----3------3-----------------|
A|------3------3------3------3-------3----3------3-----------------|
E|------1------1------1------1-------1----1------1-----------------|
 Oh and I------Once---more---ache in so---rrow----

Chorus:

 (Soft Picking)

    C---------------     Am-----   Em----    F----    C-----
e|-----------------------------------------------------------------|
B|-----1--1-----1--1--------1--1--------------1--1------1--1-------|
G|-----0--0-----0--0--------2--2-----0--0-----2--2------0--0-------|
D|-----2--2-----2--2--------2--2-----2--2-----3--3------2--2-------|
A|--3---------3----------0-----------2--2-------------3------------|
E|---------------------------------0--------1----------------------|
 ---Don't you fret I'll--Find--my--way------Carefully-Walking--

          Am----   G-----
e|-----------------------------------------------------------------|
B|----------1--1---------------------------------------------------|
G|----------1--1-----0--0------------------------------------------|
D|----------2--2-----0--0------------------------------------------|
A|--------0----------2--2------------------------------------------|
E|-----------------3-----------------------------------------------|
 From the Devil's--plane.

    C---------------          Am-----   Em----        F-----    
e|-----------------------------------------------------------------|
B|------1--1-----1--1-------------1--1------------------1--1-------|
G|------0--0-----0--0-------------2--2-----0--0---------2--2-------|
D|------2--2-----2--2-------------2--2-----2--2---------3--3-------|
A|---3---------3---------------0-----------2--2--------------------|
E|---------------------------------------0------------1------------|
 And I know----why you did not follow----me-----Pride Swallowed

   C---    G        C
e|-----------------------------------------------------------------|
B|---1-1------------1----------------------------------------------|
G|---0-0---0--------0----------------------------------------------|
D|---2-2---0--------2----------------------------------------------|
A|-3-------2--------3----------------------------------------------|
E|---------3-------------------------------------------------------|
 --Me-Then led me---Astray.

Repeat Introduction.

Repeat Verse With lyrics:

 And now the dark in me has now seen the day
 Oh my chill has now lost its way
 And these hands that once had helped me to pray
 They are limp in all their dismay
 Oh they fall in their disarray

Repeat Pre Chorus.

Repeat Chorus

Finish 5:06.

----------------------------------------------------------------------------

            
            
Suggest correction
Creating personal tab
Creating personal tab
You can edit any tab online and save it as your Personal.

You can edit, replace or remove any tab part or add personal notes – all changes will be seen only by you.

Personal tabs can be accessed anytime from any device, even offline.
Learn more »
comments
print report bad tab
1 comment total.
0 reply
cannibalcatfi 31 Jun 02, 2017 03:24 AM

Tabs are amazing, one problem with the lyrics though.

Yours:
"Oh and I------Once---more---ache in so---rrow----"
should be:
"Oh and I once more am now"

I actually prefer your lyric though :)

guest
You may want to rate the tab now too:
select rating
Wanna post a correction for this tab? Suggest correction