Oops, an error
Loading. Please wait.

Winter Tab

7,525 views 27 this week
4 commentsread comments
1 2 3 4 5
x 12
add to favorites
launch autoscroll
font size
0
reset
how to read this tab
guitar tuner
Autoscroll
slow
fast
+/-
esc
set tempo
stop
Help us to improve Ultimate-Guitar.com Take our survey!
×
Difficulty
Capo
novice
7th fret
I'm about 99% sure this is right according to this video.
http://www.youtube.com/watch?v=8ApFuAwaYw8

This is technically only the intro but the song is basically the same the whole way
through and live are a few little licks and improvisation. I may have added little parts
that aren't there.

Tabbed by Sarah Basford
Tuning: Standard
Capo: 7th fret


e|--------------------------------------------------------------|
B|--------------------------------------------------------------|
G|-0--2--4-----4---4---4---4---4----4---2---0-------------------|
D|----------------------------------------------0h2-0--0---0----|
A|--------------------------------------------------------------|
E|-3--3--3---3---3---3---3---3------3--3---3----3---3----3---3--|



also at some part he would probably add the octaves so here's a quick little tab for that.


e|-10--12--14------------14---12---10-------------------|
B|--------------------------------------10h12--10-------|
G|-0---2----4------------4----2----0--------------------|
Suggest correction
comments
print report bad tab
4 comments total. Showing first comments.
0 reply
mortencarl199 10 Sep 23, 2013 10:23 AM

Hey mate, great tab ;). But I dont understand the last part with the octaves, in my opinion, they doesn't make sense. I don't believe it is possible the play 12 and 2 at the same time. Can you help me out with that?

Best regards Morten

0 reply
Sarah&Colour 10 Oct 18, 2013 09:34 AM

Hey Morten,

That was a mistake on my part! I was meant to write:

Capo: 7th fret

e|-3---5----7------------7----5----3----------------------|
B|--------------------------------------3h5--3---3--------|
G|-0---2----4------------4----2----0-----------0----0-----|

Just giving the skeleton, improvise at will!

0 reply
tofso 178 Mar 14, 2014 05:39 AM

In the "summer we party" (or w/e he's singing) bit, he goes to an Em (or Em7) chord via an F# in the bass. I think the other guitarist keeps playing the G A B thing. And the song ends on a C. (This is all relative to the capo.)

If you're playing by yourself you could do something like this:


e|------------------------------------------Second time play C--|
B|------------------------------------------chord here.---------|
G|-0--2--4-----4---4---4---4---4----4---2---0-------------------|
D|----------------------------------------------0h2-0--0---0----|
A|--------------------------------------------------------------|
E|-3--2--0---0---0---0---0---0------0---0---3----3---3----3---3-|

guest
You may want to rate the tab now too:
select rating
Wanna post a correction for this tab? Suggest correction