Oops, an error
Loading. Please wait.

Astair Tab

version 2
version 2

Intro

Whole song

Interactive

20,876 views 9 this week
no commentswrite comment
1 2 3 4 5
excellent!
x 9
add to favorites
launch autoscroll
font size
0
reset
how to read this tab
guitar tuner
Tab Pro tools
  • play this tab
  • loop segment
  • change instrument
  • show fretboard
  • metronome
Autoscroll
slow
fast
+/-
esc
set tempo
stop
Contributor
Astair by Matt Costa 

Edited by the same person (a random guitar newbie) , 
this time with a ultimate guitar account
(a_guitar_noob)

fixed quite a few mistakes    
 
 
The x's are dividers 
xx = between different parts 
xxx= end 
 

OPTIONAL TABS- tabs that can be substituted 
and added 
 
x's= dividers 
 
Also the ending of each verse can be played 
-----------------------|
----0---------0--------|
--------0----------0---|
------0----------0-----|
--2--------------------|
-----------3-----------|, 
tabs below are different at the end 

xxxxxxxxxxxxxxxxxxxxxxxxxxxxxxxxxxxxxxxxxxxxxxxxx 

Also the second part of each verse that starts with
"but the mountains; but the canyons" 
can be played with the same tabs in the 1st part 
instead of the open 1st string 

for example 

like this   
-----------------------|
--1----------1---------|
-------0---------------|
-----2----------2------|
--3--------3-----------|
-----------------------| 

instead of (for example) 
---------------0-------|
--1--------------------|
-------0---------------|
-----2-----------------|
--3--------3-----------|
-----------------------|  

but it depends on what YOU think it sounds right
xxxxxxxxxxxxxxxxxxxxxxxxxxxxxxxxxxxxxxxxxxxxxxxxxxx
You can play around with the tab to make it appealing 
to what you think sounds right, but this should be 
good enough or just to get you started. 
xxxxxxxxxxxxxxxxxxxxxxxxxxxxxxxxxxxxxxxxxxxxxxxxxxx     

CAPO 4

Standard tuning

Start
E||----------------------|----------------------|----------------------|
B||----------------------|----------------------|----------------------|
G||----------------------|----------------------|----------------------|
D||-------2---------2----|-------2---------2----|-------2---------2----|
A||--3---------3---------|--3---------3---------|--2---------2---------|
E||----------------------|----------------------|----------------------|

 

----------------------|----------------------|----------------------|
----------------------|----------------------|----------------------|
----------------------|----------------------|----------------------|
-------2---------2----|-------2---------2----|-------2---------2----|
--2---------2---------|--0---------0---------|--0---------0---------|
----------------------|----------------------|----------------------|

 

----------------------|----------------------|----------------------|
----------------------|----------------------|----------------------|
----------------------|----------------------|----------------------|
-------2---------2----|-------2---------2----|-------3---------3----|
----------------------|----------------------|----------------------|
--3---------3---------|--3---------3---------|--1---------1---------|

 

----------------------|----------------------|----------------------xx
----------------------|----------------------|----------------------xx
----------------------|----------------------|----------------------xx
-------3---------3----|-------0---------0----|-------0---------0----xx
----------------------|------------0---------|--2-------------------xx
--1---------1---------|--3-------------------|------------3---------xx

 
   Astair                      your glare             is killing me
------------------------|------------------------|------------------------|
---1-------------1------|--3-------------3-------|--1-------------1-------|
----------0-------------|----------0-------------|----------0-------------|
-------2-----------2----|-------0-----------0----|-------2-----------2----|
---3----------3---------|--2----------2----------|--0----------0----------|
------------------------|------------------------|------------------------|

 
                                 Astair in            skies of    blue
------------------------|------------------------|------------------------|
--1-------------1-------|--1-------------1-------|--1-------------1-------|
----------0-------------|----------2-------------|----------2-------------|
-------2-----------2----|-------3-----------3----|-------3-----------3----|
------------------------|------------------------|------------------------|
--3----------3----------|--1----------1----------|--1----------1----------|


                                                     The signs                  
------------------------|------------------------xx------------------------|
--0-------------0-------|-----0------------------xx--1-------------1-------|
----------0-----------0-|-----------0------------xx----------0-------------|
-------0-----------0----|--------0---------------xx-------2-----------2----|
-------------0----------|--2---------------------xx--3----------3----------|
--3---------------------|--------------3---------xx------------------------|

 
     you wear                 are making me
------------------------|------------------------|------------------------|
--3-------------3-------|--1-------------1-------|--1-------------1-------|
----------0-------------|----------0-------------|----------0-------------|
-------0-----------0----|-------2-----------2----|-------2-----------2----|
--2----------2----------|--0----------0----------|------------------------|
------------------------|------------------------|--3----------3----------|

 
                    So confused
------------------------|------------------------|------------------------|
--1-------------1-------|--1--------------1------|--0----------0----------|
----------2-------------|-----------2------------|-------0-----------0----|
-------3-----------3----|--------3-----------3---|-----0----------0-------|
------------------------|------------------------|----------0-------------|
--1-----------1---------|--1-----------1---------|--3---------------------|

 
                     But        the mountains and the trees          Are they 
------------------------xx------------------------|------------------------|
----0-------------------xx--1-------------1-------|--3-------------3-------|
----------0-------------xx----------0-------------|----------0-------------|
-------0----------------xx-------2------------2---|-------0-----------0----|
--2---------------------xx--3----------3----------|--2---------2-----------|
-------------3----------xx------------------------|------------------------|

 
just what you need   Or are they less than what  
------------------------|------------------------|------------------------|
--1-------------1-------|--1---------------1-----|--1-------------1-------|
----------0-------------|----------0-------------|----------2-------------|
-------2-----------2----|-------2--------------2-|-------3-----------3----|
--0---------0-----------|------------------------|------------------------|
------------------------|--3----------3----------|--1---------1-----------|

 
                                    You'd expect to see
------------------------|------------------------|------------------------xx
--1--------------1------|---0-----------0--------|----0-------------------xx
-----------2------------|---------0-----------0--|----------0-------------xx
--------3-----------3---|------0-----------0-----|-------0----------------xx
------------------------|------------0-----------|--2---------------------xx
--1-----------1---------|---3--------------------|--------------3---------xx 


     And if you're leaving            well come  Give me reason 
------------------------|------------------------|------------------------|
--1---------------1-----|--3---------------3-----|--1----------------1----|
----------0-------------|----------0-------------|----------0-------------|
-------2-------------2--|-------0-------------0--|--------2------------2--|
--3----------3----------|--2---------2-----------|--0-----------0---------|
------------------------|------------------------|------------------------|


why I let you down
------------------------|------------------------|------------------------|
--1---------------1-----|--1-----------1---------|--1-------------1-------|
----------0-------------|--------2---------------|---------2--------------|
-------2-------------2--|-----3------------3-----|------3------------3----|
------------------------|------------------------|------------------------|
--3-----------3---------|--1--------1------------|--1---------1-----------| 


          Before you turn                             around 
------------------------|------------------------xx------------------------|
--0-----------0---------|-----0------------------xx--1------------1--------|
--------0-----------0---|-----------0------------xx--------0---------------|
-----0-----------0------|--------0---------------xx-----2-------------2----|
-----------0------------|--2---------------------xx--0---------0-----------|
--3---------------------|--------------3---------xx------------------------| 


        now                        now
------------------------|------------------------|------------------------|
--1-----------1---------|--1-----------1---------|--1-----------1---------|
--------0---------------|--------2---------------|--------2---------------|
-----2------------2-----|-----3-----------3------|-----3-------------3----|
------------------------|------------------------|------------------------|
--3--------3------------|--1--------1------------|--1--------1------------| 


              Before you turn around
------------------------|------------------------xx----------------0-------|
--0-------------0-------|-----0------------------xx--1-------------1-------|
----------0-----------0-|-----------0------------xx----------0-------------|
-------0-----------0----|--------0---------------xx-------2----------------|
-------------0----------|--2---------------------xx--3----------3----------|
--3---------------------|--------------3---------xx------------------------|



----------------0-------|----------------0-------|----------------0-------|
--3-------------3-------|--1-------------1-------|--1-------------1-------|
----------0-------------|----------0-------------|----------0-------------|
-------0----------------|-------2----------------|-------2----------------|
--2----------2----------|--0----------0----------|------------------------|
------------------------|------------------------|--3----------3----------| 



----------------1-------|-----------------1------|------------------------|
--1-------------1-------|--1--------------1------|--0----------0----------|
----------2-------------|-----------2------------|-------0-----------0----|
-------3----------------|--------3---------------|-----0----------0-------|
------------------------|------------------------|----------0-------------|
--1-----------1---------|--1-----------1---------|--3---------------------| 



------------------------xx
-----0------------------xx
-----------0------------xx
--------0---------------xx 
--2---------------------xx
--------------3---------xx 


     Astair                  you're there           and I'm still here      
------------------------|------------------------|------------------------|
---1-------------1------|--3-------------3-------|--1-------------1-------|
----------0-------------|----------0-------------|----------0-------------|
-------2-----------2----|-------0-----------0----|-------2-----------2----|
---3----------3---------|--2----------2----------|--0----------0----------|
------------------------|------------------------|------------------------|

 
                                  I swear I'm so confused
------------------------|------------------------|------------------------|
--1-------------1-------|--1-------------1-------|--1-------------1-------|
----------0-------------|----------2-------------|----------2-------------|
-------2-----------2----|-------3-----------3----|-------3-----------3----|
------------------------|------------------------|------------------------|
--3----------3----------|--1----------1----------|--1----------1----------|


                                                     The signs 
------------------------|------------------------xx------------------------|
--0-------------0-------|-----0------------------xx--1-------------1-------|
----------0-----------0-|-----------0------------xx----------0-------------|
-------0-----------0----|--------0---------------xx-------2-----------2----|
-------------0----------|--2---------------------xx--3----------3----------|
--3---------------------|--------------3---------xx------------------------|

 
  you wear                      are making me 
------------------------|------------------------|------------------------|
--3-------------3-------|--1-------------1-------|--1-------------1-------|
----------0-------------|----------0-------------|----------0-------------|
-------0-----------0----|-------2-----------2----|-------2-----------2----|
--2----------2----------|--0----------0----------|------------------------|
------------------------|------------------------|--3----------3----------|

 
        Feel like I'm the one to lose
------------------------|------------------------|------------------------|
--1-------------1-------|--1--------------1------|--0----------0----------|
----------2-------------|-----------2------------|-------0-----------0----|
-------3-----------3----|--------3-----------3---|-----0----------0-------|
------------------------|------------------------|----------0-------------|
--1-----------1---------|--1-----------1---------|--3---------------------|

 
                                     But the canyons and the seas 
------------------------xx------------------------|------------------------|
----0-------------------xx--1-------------1-------|--3-------------3-------|
----------0-------------xx----------0-------------|----------0-------------|
-------0----------------xx-------2-----------2----|-------0-----------0----|
--2---------------------xx--3----------3----------|--2---------2-----------|
-------------3----------xx------------------------|------------------------|

 
Are they just what you need Or are they less than what 
------------------------|------------------------|------------------------|
--1-------------1-------|--1---------------1-----|--1-------------1-------|
----------0-------------|----------0-------------|----------2-------------|
-------2-----------2----|-------2-------------2--|-------3-----------3----|
--0---------0-----------|------------------------|------------------------|
------------------------|--3----------3----------|--1---------1-----------|

 
                                     You'd expect to see
------------------------|------------------------|------------------------xx
--1--------------1------|---0-----------0--------|----0-------------------xx
-----------2------------|---------0-----------0--|----------0-------------xx
--------3-----------3---|------0-----------0-----|-------0----------------xx
------------------------|------------0-----------|--2---------------------xx
--1-----------1---------|---3--------------------|--------------3---------xx 


And if you're leaving well come Give me reason 

------------------------|------------------------|------------------------|
--1-------------1-------|--3--------------3------|--1---------------1-----|
----------0-------------|----------0-------------|----------0-------------|
-------2------------2---|-------0------------0---|--------2------------2--|
--3----------3----------|--2---------2-----------|--0-----------0---------|
------------------------|------------------------|------------------------|


why I let you down 
------------------------|------------------------|------------------------|
--1---------------1-----|--1-----------1---------|--1-------------1-------|
----------0-------------|--------2---------------|---------2--------------|
-------2-------------2--|-----3------------3-----|------3------------3----|
------------------------|------------------------|------------------------|
--3-----------3---------|--1--------1------------|--1---------1-----------| 


             Before you turn                           around              
------------------------|------------------------xx------------------------|
--0-----------0---------|-----0------------------xx--1------------1--------|
--------0-----------0---|-----------0------------xx--------0---------------|
-----0-----------0------|--------0---------------xx-----2------------2-----|
-----------0------------|--2---------------------xx--0--------0------------|
--3---------------------|--------------3---------xx------------------------| 


        now                        now,
------------------------|------------------------|------------------------|
--1-----------1---------|--1-----------1---------|--1-----------1---------|
--------0---------------|--------2---------------|--------2---------------|
-----2------------2-----|-----3------------3-----|-----3-----------3------|
------------------------|------------------------|------------------------|
--3--------3------------|--1--------1------------|--1--------1------------| 


                 Before you turn                       around 
------------------------|------------------------xx------------------------|
--0-----------0---------|-----0------------------xx--1------------1--------|
--------0-----------0---|-----------0------------xx--------0---------------|
-----0-----------0------|--------0---------------xx-----2------------2-----|
-----------0------------|--2---------------------xx--0--------0------------|
--3---------------------|--------------3---------xx------------------------| 


            now,                now
------------------------|------------------------|------------------------|
--1-----------1---------|--1-----------1---------|--1-----------1---------|
--------0---------------|--------2---------------|--------2---------------|
-----2------------2-----|-----3------------3-----|-----3-----------3------|
------------------------|------------------------|------------------------|
--3--------3------------|--1--------1------------|--1--------1------------| 


           Before you turn around
------------------------|------------------------xx---------------0--------|
--0-----------0---------|-----0------------------xx--1------------1--------|
--------0-----------0---|-----------0------------xx--------0---------------|
-----0-----------0------|--------0---------------xx-----2------------------|
-----------0------------|--2---------------------xx--3--------3------------|
--3---------------------|--------------3---------xx------------------------|  



----------------0-------|----------------0-------|----------------0-------|
--3-------------3-------|--1-------------1-------|--1-------------1-------|
----------0-------------|----------0-------------|----------0-------------|
-------0----------------|-------2----------------|-------2----------------|
--2----------2----------|--0----------0----------|------------------------|
------------------------|------------------------|--3----------3----------| 



----------------1-------|-----------------1------|------------------------|
--1-------------1-------|--1--------------1------|--0----------0----------|
----------2-------------|-----------2------------|-------0-----------0----|
-------3----------------|--------3---------------|-----0----------0-------|
------------------------|------------------------|----------0-------------|
--1-----------1---------|--1-----------1---------|--3---------------------| 



------------------------xx---------------0--------|
-----0------------------xx--1------------1--------|
-----------0------------xx--------0---------------|
--------0---------------xx-----2------------------|
--2---------------------xx--0--------0------------|
--------------3---------xx------------------------|



--------------0---------|--------------1---------|--------------1---------|
--1-----------1---------|--1-----------1---------|--1-----------1---------|
--------0---------------|--------2---------------|--------2---------------|               
-----2------------------|-----3------------------|-----3------------------|                            
------------------------|------------------------|------------------------|
--3--------3------------|--1--------1------------|--1--------1------------| 



--------------0---------|--------------0---------|--------------1---------|
--1-----------1---------|--1-----------1---------|--1-----------1---------|
--------0---------------|--------0---------------|--------2---------------|
-----2------------------|-----2------------------|-----3------------------|
--0--------0------------|------------------------|------------------------|
------------------------|--3--------3------------|--1--------1------------|  



-----------------1------|------------------------|------------------------xx
--1--------------1------|---0-----------0--------|----0-------------------xx
-----------2------------|---------0-----------0--|----------0-------------xx
--------3---------------|------0-----------0-----|-------0----------------xx
------------------------|------------0-----------|--2---------------------xx
--1-----------1---------|---3--------------------|--------------3---------xx  

 
   But the mountains and the trees 
----------------0-------|----------------0-------|
--1-------------1-------|--3-------------3-------|
----------0-------------|----------0-------------|
-------2----------------|-------0----------------|
--3----------3----------|--2---------2-----------|
------------------------|------------------------|

 
Are they what you perceive     Or are they less than what 
----------------0-------|------------------0-----|------------------------|
--1-------------1-------|--1---------------1-----|--1-------------1-------|
----------0-------------|----------0-------------|----------2-------------|
-------2----------------|-------2----------------|-------3-----------3----|
--0---------0-----------|------------------------|------------------------|
------------------------|--3----------3----------|--1---------1-----------|

 
                                       You'd expect to see
------------------------|------------------------|------------------------xx
--1--------------1------|---0-----------0--------|----0-------------------xx
-----------2------------|---------0-----------0--|----------0-------------xx
--------3-----------3---|------0-----------0-----|-------0----------------xx
------------------------|------------0-----------|--2---------------------xx
--1-----------1---------|---3--------------------|--------------3---------xx 


And if you're leaving         well come              Give me reason  
----------------0-------|----------------0-------|-------------------0----|
--1-------------1-------|--3-------------3-------|--1----------------1----|
----------0-------------|----------0-------------|----------0-------------|
-------2----------------|-------0----------------|------2-----------------|
--3----------3----------|--2---------2-----------|--0-----------0---------|
------------------------|------------------------|
------------------------|


   why I let you down
------------------0-----|------------------------|------------------------|
--1---------------1-----|--1-----------1---------|--1-------------1-------|
----------0-------------|--------2---------------|---------2--------------|
-------2----------------|-----3------------3-----|------3------------3----|
------------------------|------------------------|------------------------|
--3-----------3---------|--1--------1------------|--1---------1-----------| 


                   Before you turn                       around            
------------------------|------------------------xx---------------0--------|
--0-----------0---------|-----0------------------xx--1------------1--------|
--------0-----------0---|-----------0------------xx--------0---------------|
-----0-----------0------|--------0---------------xx-----2------------------|
-----------0------------|--2---------------------xx--0--------0------------|
--3---------------------|--------------3---------xx------------------------| 


          now,                   now
--------------0---------|--------------1---------|--------------1---------|
--1-----------1---------|--1-----------1---------|--1-----------1---------|
--------0---------------|--------2---------------|--------2---------------|
-----2------------------|-----3------------------|-----3------------------|
------------------------|------------------------|------------------------|
--3--------3------------|--1--------1------------|--1--------1------------| 


           Before you turn around
------------------------|------------------------xx----------------0-------|
--0-------------0-------|-----0------------------xx--1-------------1-------|
----------0-----------0-|-----------0------------xx----------0-------------|
-------0-----------0----|--------0---------------xx-------2----------------|
-------------0----------|--2---------------------xx--3----------3----------|
--3---------------------|--------------3---------xx------------------------|  



----------------0-------|----------------0-------|----------------0-------|
--3-------------3-------|--1-------------1-------|--1-------------1-------|
----------0-------------|----------0-------------|----------0-------------|
-------0----------------|-------2----------------|-------2----------------|
--2----------2----------|--0----------0----------|------------------------|
------------------------|------------------------|--3----------3----------| 


                                                             Before you 
----------------1-------|-----------------1------|------------------------|
--1-------------1-------|--1--------------1------|--0----------0----------|
----------2-------------|-----------2------------|-------0-----------0----|
-------3----------------|--------3---------------|-----0----------0-------|
------------------------|------------------------|----------0-------------|
--1-----------1---------|--1-----------1---------|--3---------------------| 


  turn around 
------------------------xx--0-------------------xxx
-----0------------------xx--1-------------------xxx
-----------0------------xx--0-------------------xxx
--------0---------------xx--2-------------------xxx
--2---------------------xx--3-------------------xxx
--------------3---------xx--0-------------------xxx
                               ( C chord )









                                                                            
  
comments
print report bad tab
I want to post or [tab]
guest
You may want to rate the tab now too:
select rating
Please do not post tabs as comments. Select "correction" instead!